Cifra Club

Settle

Headstones

Cifrado: Principal (guitarra y guitarra eléctrica)
tono: G
NOTE--------------------------------#


ALBUM: Nickels for Your Nightmares

This song was tabbed by: Gordon Huntley.

This tab isn't complete but the main part is as close to 100% accurate 
you 
will ever find.  I am really proud of it.  If you have comments or 
suggestions
send them to *.

MAIN RIFF ( repeated through a lot of the song ):
Listen to the song for the timing, it's kind of strange.
e|-----------------------------------------------------|-----------------
B|-----------------------5----------------------7---8--|----7/---7----8--
G|----6----7----5---4---------5---4----7----4----------|-----------------
D|-----------------------------------------------------|-----------------
A|--0----0----0---0----0----0---0----0----0---0---0----|--0----0----0----
E|-----------------------------------------------------|-----------------

Cool Super-Fast Solo Riff:
e|---------------------|---------------------
B|---------------------|---------------------
G|---------------------|---------------------
D|--5/7--7-7-10-7-7-7--|-----------5-5--5-5--
A|---------------------|---------------------
E|--3/5--5-5--8-5-5-5--|--5-3-0-3--3-3--3-3--

---------------------------------------------------------------------------
00:00 / 00:00
Otros videos de esta canción
Repetir
Otros videos de esta canción
Compositor no encontrado.
11 exhibiciones
    • ½ Tono
    • A
    • Bb
    • B
    • C
    • Db
    • D
    • Eb
    • E
    • F
    • F#
    • G
    • Ab
  • Agregar a la lista
    00:00 / 00:00
    OK