Cifra Club

Patent Pending

Heavens

Cifrado: Principal (guitarra y guitarra eléctrica)
tono: E
from Theives Like Us, is blazing onto the music scene September 12.  They've released
one song, this one I am about to tab out for you.  I heard it and loved so I decided to 
the entire thing out.  I'm happy to let UG have it first.

Album: To Be Announced
Record Label: Epitaph


There are two guitars at the begining of this song.  The main riff is the first one
here, and the second you can hear in the backround over-top:

Intro:
-------------------------------------------------------------------------|
-------------------------------------------------------------------------|
-------------------------------------------------------------------------|X4
--2-2---4-4---5-5---4-4---7-7---5-4-0--0---------------------------------|
-------------------------------------------------------------------------|
-------------------------------------------------------------------------|

Guitar 2:
---------------------------|
---------------------------|
---------------------------|
--12---9~--7--9~---12-14~--|
---------------------------|
---------------------------|

Verse:
Now, if you've heard the song, you know it's not really just distorted, or even
power-chords.  So for this section, I don't want you to play ska chords, but i would 
you to
the first note on an upstroke and then continue, hitting the majority of the mutes with 
downstroke.
So when you're hitting the notes, try hitting the G and D strings first.
-----------------------------------------------------------------------------|
-----------------------------------------------------------------------------|
--9--X--9--9--X--9--9---X-----7-7------------5--X--5--5--X--5--5--X--5--5----|
--9--X--9--9--X--9--9---X-----7-7------------5--X--5--5--X--5--5--X--5--5----|
--7--X--7--7--X--7--7---X-----5-5------------3--X--3--3--X--3--3--X--3--3----|
-----------------------------------------------------------------------------|
Bring your broke bring your broken heart in got a vessel that we've chartered

-----------------------------------------------------------------------------|
-----------------------------------------------------------------------------|
--9--X--9--9--X--9--9---X-----7-7------------5--X--5--5--X--5--5--X--5--5----|
--9--X--9--9--X--9--9---X-----7-7------------5--X--5--5--X--5--5--X--5--5----|
--7--X--7--7--X--7--7---X-----5-5------------3--X--3--3--X--3--3--X--3--3----|
-----------------------------------------------------------------------------|
In the free, wide-open sea, the two of us duly departed
Bring a book with a happy ending, a remix of the message sending
Shining clean, this guillotene, not yet approved, patent pending.

Break:
Guitar 1
------------------------------------------------------------------------|
------------------------------------------------------------------------|
------------------------------------------------------------------------|X4
--2-2---4-4---5-5---4-4---7-7---5-4-0--0--------------------------------|
------------------------------------------------------------------------|
------------------------------------------------------------------------|

Guitar 2:
---------------------------|
---------------------------|
---------------------------|
--12---9~--7--9~---12-14~--|
---------------------------|
---------------------------|

2nd Verse:
-----------------------------------------------------------------------------|
-----------------------------------------------------------------------------|
--9--X--9--9--X--9--9---X-----7-7------------5--X--5--5--X--5--5--X--5--5----|
--9--X--9--9--X--9--9---X-----7-7------------5--X--5--5--X--5--5--X--5--5----|
--7--X--7--7--X--7--7---X-----5-5------------3--X--3--3--X--3--3--X--3--3----|
--------------------------------------------(Pickslide)----------------------|
Place a curse, on the hearse we're driving, cut the break lines and a dying
Glad to be, tramatically, against the ropes lost all hopes trying
Finding ways to break the silence, and to quench our taste for violence
Shadow-free monstrosities crafting up ? ? ? ?

Chorus:
---------------------------------------------------------------------------|
---------------------------------------------------------------------------|
-----------2222222-----------------2222222---------------------------------|
-2222222---2222222----2222222------2222222---------------------------------|
-2222222---0000000----2222222------0000000---------------------------------|
-0000000--------------0000000----------------------------------------------|
High       time       We swore off everything we know

---------------------------------------------------------------------------|
---------------------------------------------------------------------------|
-----------2222222-------555555----------777777----------------------------|
-2222222---2222222-------555555----------777777----------------------------|
-2222222---0000000-------333333----------555555----------------------------|
-0000000-------------------------------------------------------------------|
Sit         Tight         We'll be back in six minutes or so

Post-Chorus
Guitar 1:
-------------------------------------------------------------------------|
-------------------------------------------------------------------------|
-------------------------------------------------------------------------|X4
--2-2---4-4---5-5---4-4---7-7---5-4-0--0---------------------------------|
-------------------------------------------------------------------------|
-------------------------------------------------------------------------|

Guitar 2:
----------------------------|
----------------------------|
----------------------------|
--12---9~--7--9~---12-14~-9-|
----------------------------|
----------------------------|

3rd Verse:
-----------------------------------------------------------------------------|
-----------------------------------------------------------------------------|
--9--X--9--9--X--9--9---X-----7-7------------5--X--5--5--X--5--5--X--5--5----|
--9--X--9--9--X--9--9---X-----7-7------------5--X--5--5--X--5--5--X--5--5----|
--7--X--7--7--X--7--7---X-----5-5------------3--X--3--3--X--3--3--X--3--3----|
-----------------------------------------------------------------------------|
Bring your bored bring your broken heart in got a vessel that we've chartered

-----------------------------------------------------------------------------|
-----------------------------------------------------------------------------|
--9--X--9--9--X--9--9---X-----7-7------------5--X--5--5--X--5--5--X--5--5----|
--9--X--9--9--X--9--9---X-----7-7------------5--X--5--5--X--5--5--X--5--5----|
--7--X--7--7--X--7--7---X-----5-5------------3--X--3--3--X--3--3--X--3--3----|
-----------------------------------------------------------------------------|
In the free, wide-open sea, the two of us duly departed


Now, the verse goes a bit odd here.  What's going to happen is that one guitarist
to upstroke, but quitely with no root note on the E or A, while another palm-mutes the intro.
for yourself:

Guitar 1 (Palm Muted):

-----------------------------------------------------------------------------|
-----------------------------------------------------------------------------|
-----------------------------------------------------------------------------|
--2-2---4-4---5-5---4-4---7-7---5-4-0--0-------------------------------------|
-----------------------------------------------------------------------------|
-----------------------------------------------------------------------------|
  - -   - -   - -   - -   - -   - - -  -

Guitar 2:
-----------------------------------------------------------------------------|
-----------------------------------------------------------------------------|
--9~----------------------------9~-----------9~------------------------------|
--9~----------------------------9~-----------9~------------------------------|
-----------------------------------------------------------------------------|
-----------------------------------------------------------------------------|
Bring a book with a happy ending, a remix of the message sending

-----------------------------------------------------------------------------|
-----------------------------------------------------------------------------|
--9~----------------------------9~-----------5--X--5--5--X--5--5--X--5--5----|
--9~----------------------------9~-----------5--X--5--5--X--5--5--X--5--5----|
---------------------------------------------3--X--3--3--X--3--3--X--3--3----|
-----------------------------------------------------------------------------|
Headless dreams of guillotenes, shot unclean, never-ending.


Chorus:
---------------------------------------------------------------------------|
---------------------------------------------------------------------------|
-----------2222222-----------------2222222---------------------------------|
-2222222---2222222----2222222------2222222---------------------------------|
-2222222---0000000----2222222------0000000---------------------------------|
-0000000--------------0000000----------------------------------------------|
High       time       We swore off everything we know

---------------------------------------------------------------------------|
---------------------------------------------------------------------------|
-----------2222222-------555555----------777777----------------------------|
-2222222---2222222-------555555----------777777----------------------------|
-2222222---0000000-------333333----------555555----------------------------|
-0000000-------------------------------------------------------------------|
Sit         Tight         We'll be back in six minutes or so

---------------------------------------------------------------------------|
---------------------------------------------------------------------------|
-----------2222222-----------------2222222---------------------------------|
-2222222---2222222----2222222------2222222---------------------------------|
-2222222---0000000----2222222------0000000---------------------------------|
-0000000--------------0000000----------------------------------------------|
High       time       We swore off everything we know

---------------------------------------------------------------------------|
---------------------------------------------------------------------------|
-----------2222222-------555555----------777777----------------------------|
-2222222---2222222-------555555----------777777----------------------------|
-2222222---0000000-------333333----------555555----------------------------|
-0000000-------------------------------------------------------------------|
Sit         Tight        We'll be back with 6 6 6 in tow


Bridge:

Guitar 1:
--------------------------------------------------------|
--------------------------------------------------------|
-------0------4-------0---------------------------------|Continue to Repeat
--2-2-----2-2----2-2-----2---5/4--0---------------------|
--------------------------------------------------------|
--------------------------------------------------------|

Guitar 2 (After 3 reps of guitar 1):
---------------------------------------------------------------------------|
---------------------------------------------------------------------------|
-------9999999999999-12-99999999999-12-99999999999-12-99-9-99-9-999999-----|
-------9999999999999-12-99999999999-12-99999999999-12-99-9-99-9-999999-----|
-------7777777777777-10-77777777777-10-77777777777-10-77-7-77-7-777777-----|
---------------------------------------------------------------------------|
       ------------- - ------------ -  ----------- -  -- -

Guitar 3 (After Guitar 2):
-------------------------------------------------------------------------|
-------------------------------------------------------------------------|
-------------------------------------------------------------------------|
--------------9-9-9-9-9-9-9-9-9------------------------------------------|
---777---999-------------------------------------------------------------|
-------------------------------------------------------------------------|

Chorus:
---------------------------------------------------------------------------|
---------------------------------------------------------------------------|
-----------2222222-----------------2222222---------------------------------|
-2222222---2222222----2222222------2222222---------------------------------|
-2222222---0000000----2222222------0000000---------------------------------|
-0000000--------------0000000----------------------------------------------|
High       time       We swore off everything we know

---------------------------------------------------------------------------|
---------------------------------------------------------------------------|
-----------2222222-------555555----------777777----------------------------|
-2222222---2222222-------555555----------777777----------------------------|
-2222222---0000000-------333333----------555555----------------------------|
-0000000-------------------------------------------------------------------|
Sit         Tight         We'll be back in six minutes or so

---------------------------------------------------------------------------|
---------------------------------------------------------------------------|
-----------2222222-----------------2222222---------------------------------|
-2222222---2222222----2222222------2222222---------------------------------|
-2222222---0000000----2222222------0000000---------------------------------|
-0000000--------------0000000----------------------------------------------|
High       time       We swore off everything we know

---------------------------------------------------------------------------|
---------------------------------------------------------------------------|
-----------2222222-------555555----------777777----------------------------|
-2222222---2222222-------555555----------777777----------------------------|
-2222222---0000000-------333333----------555555----------------------------|
-0000000-------------------------------------------------------------------|
Sit         Tight        We'll be back with 6 6 6 I know


Outro:
This time Guitar 2 is a little different, so take note.

Guitar 1
-------------------------------------------------------------------------|
-------------------------------------------------------------------------|
-------------------------------------------------------------------------|X8
--2-2---4-4---5-5---4-4---7-7---5-4-0--0---------------------------------|
-------------------------------------------------------------------------|
-------------------------------------------------------------------------|

Guitar 2:
---------------------------------------------------------------------------|
---------------------------------------------------------------------------|
---------------------------------------------------------------------------|
--12---9~--7--9~---12-14--12-9--12--9--7--9~---12-14--12-9-----------------|
---------------------------------------------------------------------------|
---------------------------------------------------------------------------|

End on:

-----
-----
-----
--0--
-----
-----

Or, for more drama, end on:
-----
-----
--9--
--9--
--7--
-----

So that's it.  A lot more complicated then I thought when I first heard the song, but it
fun to tab out and I hope you find it accurate enough.  Once again, I'm proud to
this first on UG.

-Michael
00:00 / 00:00
Otros videos de esta canción
Repetir
Otros videos de esta canción
Composición de Heavens
13 exhibiciones
    • ½ Tono
    • A
    • Bb
    • B
    • C
    • Db
    • D
    • Eb
    • E
    • F
    • F#
    • G
    • Ab
  • Agregar a la lista
    00:00 / 00:00
    OK