Cifra Club

Gata Fiera

Hector y Tito

Cifrado: Principal (guitarra y guitarra eléctrica)
tono: C
E|----7----------7----------8---------8-8-10-8---7----------|
B|------5-8-5-8----5-8-5-8----5-8-5-8----------8------------|
G|----------------------------------------------------------|
D|----------------------------------------------------------|
A|----------------------------------------------------------|
E|----------------------------------------------------------|

Tu Sabes!
Con los Bacatranes
Trebol Clan!
Joan!
Mister G.!
Looney Tunes (JaJaJa)
Nos Fuimos de Rumba

Ella te provoca bailando,
te envuelve, se suelta y te deja
y despúes se va con cualquiera
(Yo soy tu gatita fiera!) (x2)


Segundo intro
e|---7-9--10--7--------------------------------------------|

Gata Fiera...
Envuelve a los hombre y los deja
Gata Fiera...
A mi no me vas a aruñar... (x2)

Esta parte la toca el bajo
A que te aruño papi, a que te aruño
(Ohhh!)
A que te aruño papi, a que te aruño
(Ahhh!)
A que te aruño papi, a que te aruño
A mi no me vas a aruñar!

A que te aruño mami, a que te aruño
(Ohhh!)
A que te aruño mami, a que te aruño
(Ahhh!)
A que te aruño mami, a que te aruño
A mi no me vas a aruñar!





Segundo intro
e|---7-9--10--7---------------------------------------------|


Oye tu gata fiera, que es lo que te crees,
que estas bregando con cualquiera, tu estas equivoca
conmigo va' a sacar candela,
vamonos hasta abajo, pa' que pruebes de mi mela,
gata traicionera, va' a ser mi prisionera,
vela que te pillo donde quiera y como quiera,
tu no te me escapas de ninguna otra manera,
tu no me intimidas con eso de gata fiera,
conmigo te guillaste y perdiste como quiera.

Tercer intro
E|----7------7-----7-8-----8-----8---------------------------|
B|------5-8----5-8-----5-8---5-8-----------------------------|
G|-----------------------------------------------------------|
D|-----------------------------------------------------------|
A|-----------------------------------------------------------|
E|-----------------------------------------------------------|

Primero engañate a tu hombre,
y luego seduciste a tu amante,
despúes te empeñaste a enamorarme,
Y eso conmigo no va! (x2)
Segundo intro
e|---7-9--10--7---------------------------------------------|

Gata Fiera...
Envuelve a los hombre y los deja
Gata Fiera...
A mi no me vas a aruñar... (x2)

Esta parte la toca el bajo

A que te aruño papi, a que te aruño
(Ohhh!)
A que te aruño papi, a que te aruño
(Ahhh!)
A que te aruño papi, a que te aruño
A mi no me vas a aruñar!

A que te aruño mami, a que te aruño
(Ohhh!)
A que te aruño mami, a que te aruño
(Ahhh!)
A que te aruño mami, a que te aruño

A mi no me vas a aruñar!

Primer intro

E|----7----------7----------8---------8-8-10-8---7-----------|
B|------5-8-5-8----5-8-5-8----5-8-5-8----------8-------------|
G|-----------------------------------------------------------|
D|-----------------------------------------------------------|
A|-----------------------------------------------------------|
E|-----------------------------------------------------------|

Gata Fiera dale que llegó tu gatito,
tu tiguerito el de los setenta y los cherito,
desde los 90' los roneo yo solito
con la gata fiera que no me deje ese grito.

A que te aruño papi, a que te aruño
A que te aruño papi, a que te aruño


Segundo intro
e|---7-9--10------------------------------------------------|


Gara maulla, cada cual que jale por la suya,
pidiendo cacao despúes que me zumban las puyas,
ahora no hay arreglo que se joda con la trulla,
toa' las gatas fieras que repitan esa buya.

A que te aruño papi, a que te aruño
(Ohhh!)
A que te aruño papi, a que te aruño
(Ahhh!)
A que te aruño papi, a que te aruño
A mi no me vas a aruñar!

A que te aruño mami, a que te aruño
(Ohhh!)
A que te aruño mami, a que te aruño
(Ahhh!)
A que te aruño mami, a que te aruño
A mi no me vas a aruñar!
Compositor não encontrado.
    • ½ Tono
    • A
    • Bb
    • B
    • C
    • Db
    • D
    • Eb
    • E
    • F
    • F#
    • G
    • Ab
  • Agregar a la lista

    0 comentarios

    Ver todos los comentarios

    ¿Lograste tocar?

    0 Tocaron 0 Aún no

    ¡Graba un video tocando Gata Fiera y envíanoslo!

    00:00 / 00:00
    Outros vídeos desta música
    Repetir Calidad Automático
    Outros vídeos desta música
    00:00 / 00:00
    Automático
    OK