Cifra Club

Bartender

Hed Pe

Cifrado: Versão 2 (guitarra y guitarra eléctrica)
Selo Cifra Club: esta cifra foi revisada para atender aos critérios oficiais da nossa Equipe de Qualidade.
tono: Am
E|------------------------------------------------------------------------------|
B|------------------------------------------------------------------------------|
G|-12h13p12p11h12----11h12p11p10h11-----9h10p9p7-9b-7-----6h7p6p5h6-------------|
D|------------------------------------------------------------------------------|
A|------------------------------------------------------------------------------|
E|------------------------------------------------------------------------------|
 guitar 2:

E|-----12^-------0--------0-------0---------------------------------------------|
B|-----12^-------11-------8-------1---------------------------------------------|
G|-----12^-------12-------9-------2---------------------------------------------|
D|---------------12-------9-------2---------------------------------------------|
A|-----------10--------7-------0------------------------------------------------|
E|-0----------------------------------------------------------------------------|
  both guitars:

E|------------------------------------------------------------------------------|
B|------------------------------------------------------------------------------|
G|------------------------------------------------------------------------------|
D|------------------------------------------------------------------------------|
A|----7-----7-------------------------------------------------------------------|
E|-0-----0------0--3--3--0-3-0--------------------------------------------------|
 break:
Otros videos de esta canción
    1 exhibiciones
      • ½ Tono
      • Am
      • Bbm
      • Bm
      • Cm
      • C#m
      • Dm
      • Ebm
      • Em
      • Fm
      • F#m
      • Gm
      • G#m
    • Agregar a la lista

    Afinação da cifra

    Afinador online

      Ops (: Contenido disponible solo en portugués.
      OK