Cifra Club

Blackout

Hed Pe

Cifrado: Principal (guitarra y guitarra eléctrica)
Selo Cifra Club: esta cifra foi revisada para atender aos critérios oficiais da nossa Equipe de Qualidade.
tono: D
Intro:
E|-------------------------|
B|-------------------------|
G|-------------------------|
D|---0-0-9h10-10-10-10-0---|
A|---0-0-9h10-10-10-10-0---|
E|---0-0-9h10-10-10-10-0---|

Pre-verse:
E|---------------|
B|---------------|
G|---------------|
D|---0---0-0-0---|
A|---0---0-0-0---|
E|---0---0-0-0---|

Verse:
E|---------------------------------------|
B|---------------------------------------|
G|---------------------------------------|
D|---1p0-1p0---0-0-0---1p0-1p0---0-0-0---|
A|---1p0-1p0---0-0-0---1p0-1p0---0-0-0---|
E|---1p0-1p0---0-0-0---1p0-1p0---0-0-0---|

gtr2:
E|-----------10-----10-----10---|
B|------------------------------|
G|---7-7-7-7----7-7----7-7------|
D|------------------------------|
A|------------------------------|
E|------------------------------|

Chorus:
E|--------------------------------|---------------------------|
B|--------------------------------|---------------------------|
G|--------------------------------|---------------------------|
D|---0-0-9h10-10-10-10-0--0-1-0---|---0-0-2h3-3-3-0-6p5-5-5---|
A|---0-0-9h10-10-10-10-0--0-1-0---|---0-0-2h3-3-3-0-6p5-5-5---|
E|---0-0-9h10-10-10-10-0--0-1-0---|---0-0-2h3-3-3-0-6p5-5-5---|
Otros videos de esta canción
    13 exhibiciones
      • ½ Tono
      • A
      • Bb
      • B
      • C
      • Db
      • D
      • Eb
      • E
      • F
      • F#
      • G
      • Ab
    • Agregar a la lista

    Afinación de cifrado

    Afinador online

      OK