Cifra Club

Dangerous

Hed Pe

Cifrado: Principal (guitarra y guitarra eléctrica)
Selo Cifra Club: esta cifra foi revisada para atender aos critérios oficiais da nossa Equipe de Qualidade.
tono: Dm
E|--------------------------------------------------|
B|--------------------------------------------------|
G|--------------------------------------------------|
D|----------------------------------7-7-7--7-7------|
A|---0-0-7-0---0-0-6-0-0-6-0-0-7-0-------7-7--7--7-7|
E|----------------------------------7-7-7--7-7------|

Pre-Chorus
 
E|---5-5-5-3-3-0-0-0-5h6-5h6-0--------|
B|------------------------------------|
G|------------------------------------|
D|------------------------------------|
A|------------------------------------|
E|------------------------------------|

Chorus

E|-----------------------------------------|
B|-----------------------------------------|
G|-----------------------------------------|
D|---------------5h7-7---------------------|
A|---0-0-7-0--0-0------0-0-6-0--0-0-6-0----|
E|-----------------------------------------|


Bridge

E|---------------------------------------|
B|---------------------------------------|
G|----------2-0--------------------------|
D|-------------1-0------------5-7-5------|
A|----------------3-----------5-7-5------|
E|---7-5-1-0--------5-7-5-------5-7-5----|
Otros videos de esta canción
    7 exhibiciones
      • ½ Tono
      • Am
      • Bbm
      • Bm
      • Cm
      • C#m
      • Dm
      • Ebm
      • Em
      • Fm
      • F#m
      • Gm
      • G#m
    • Agregar a la lista

    Afinación de cifrado

    Afinador online

      OK