Cifra Club

Ken 2012

Hed Pe

Cifrado: Principal (guitarra y guitarra eléctrica)
Selo Cifra Club: esta cifra foi revisada para atender aos critérios oficiais da nossa Equipe de Qualidade.
tono: E
                      E A D G B E
I haven't tried in B but that is usual Hed Pe tuning

Intro/Verse:

(wah wah)
E|---4-------------|---7-6-5-----------|
B|---4-------------|---------7-5-------|
G|-----------------|-------------7-4---|
D|-----------------|-------------------|
A|-----------------|-------------------|
E|-----------------|-------------------|

E|---13-12--------10-9---------------|
B|---------10-9--------8-7---10-12---|
G|-----------------------------------|
D|-----------------------------------|
A|-----------------------------------|
E|-----------------------------------|

Chorus :
(heavy)
E|--------------------------------------|
B|--------------------------------------|
G|-----10-10---10--------10-10---10-----|
D|---9-10-10-9-10-9---9--10-10-9-10-9---|
A|---9-8--8--9-8--9---9--8--8--9-8--9---|
E|---7-------7----7---7--------7----7---|

Bridge:
(clean)
E|-------------------------|
B|-------------------------|
G|------10-----10-----10---|
D|---9--10--9--10--9--10---|
A|---9--8---9--8---9--8----|
E|---7------7------7-------|

Solo :
E|----------------------------------|
B|-------7-6-5--7-6--7-5--7-6-5-7---|
G|---8------------------------------|
D|----------------------------------|
A|----------------------------------|
E|----------------------------------|

(heavy)
E|-------------------------------------|
B|-------------------------------------|
G|---4---7-6-5---7-6---7-5---7-6-5-7---|
D|---4---7-6-5---7-6---7-5---7-6-5-7---|
A|---2---5-4-3---5-4---5-3---5-4-3-5---|
E|-------------------------------------|

        PM---|              PM---------|
E|--------------------------------------|
B|--------------------------------------|
G|---4---7-6-5---7-6---7-5---7-6-5-7----|
D|---4---7-6-5---7-6---7-5---7-6-5-7----|
A|---2---5-4-3---5-4---5-3---5-4-3-5----|
E|--------------------------------------|
Otros videos de esta canción
    14 exhibiciones
      • ½ Tono
      • A
      • Bb
      • B
      • C
      • Db
      • D
      • Eb
      • E
      • F
      • F#
      • G
      • Ab
    • Agregar a la lista

    Afinación de cifrado

    Afinador online

      OK