Cifra Club

Killing Time

Hed Pe

Cifrado: Versão 4 (guitarra y guitarra eléctrica)
Selo Cifra Club: esta cifra foi revisada para atender aos critérios oficiais da nossa Equipe de Qualidade.
tono: Am
E|---------------|
B|---------------|
G|--------9-------|
D|----------------| (lite dist, play 4x's)
A|--7-7-----7-7--|
E|----------------|


E|------------------------------------------|
B|------------------------------------------|
G|-------------------------------------------|
D|-------------------------------------------|
A|-----------------17/16-16-16-16/15-15-15--|
E|--12/--0-0-12-0---15/14-14-14-14/13-13-13--|
      (w/dist, play 4x's)

E|----------------------------------|
B|----------------------------------|
G|-------------7/6-6-6-6/5-5-5-------| (play another
D|-------------5/4-4-4-4/3-3-3-------| 4x's)
A|------7---------------------------|
E|---0-0---0-------------------------|


E|--------------|
B|--------------| (clean)
G|-12-11-10-9----|
D|---------------|
A|--------------|
E|---------------|


E|----------------------------------|
B|----------------------------------|
G|-----------------------------------|
D|-----------------------------------|
A|-3/4-4-4-4/5-5-5-5/6-6-6-6/7-7-7--| (w/dist)
E|--1/2-2-2-2/3-3-3-3/4-4-4-4/5-5-5--|


E|-----------------|
B|-----------------|
G|--9^-9-9--9^------| (hit this a few times. No dist)
D|------------------|
A|-----------------|
E|------------------|


(chorus again)


E|----6-----12--------------|
B|--5---------------14--12--|
G|---------------------------| (lite dist)
D|---------------------------|
A|--------------------------|
E|---------------------------|


E|------------------------------|
B|------------------------------|
G|-------------7/6-6-6-6/5-5-5---|
D|-------------5/4-4-4-4/3-3-3---| (w/dist)
A|------7-----------------------|
E|---0-0---0---------------------|


E|----------------|
B|----------------|
G|-----------------|
D|-----------------|
A|-----7----------| (w/wah,dist)
E|--0-0---0--------|


E|-----------------------------|
B|-----------------------------|
G|------------------------------|
D|------------------------------|
A|-3/4-4--3/4-4--3/4-4--3/4-4--| (wah off)
E|--1/2-2--1/2-2--1/2-2--1/2-2--|


E|------------------------------------|
B|------------------------------------|
G|-------------------------------------|
D|-------------------------------------|
A|-3/4-4-4-4/5-5-5-5/6-6-6-6/7-7-7----|
E|--1/2-2-2-2/3-3-3-3/4-4-4-4/5-5-5----|
Otros videos de esta canción
    0 exhibiciones
      • ½ Tono
      • Am
      • Bbm
      • Bm
      • Cm
      • C#m
      • Dm
      • Ebm
      • Em
      • Fm
      • F#m
      • Gm
      • G#m
    • Agregar a la lista

    Afinação da cifra

    Afinador online

      Ops (: Contenido disponible solo en portugués.
      OK