Cifra Club

Killing Time

Hed Pe

Cifrado: Versão 3 (guitarra y guitarra eléctrica)
Selo Cifra Club: esta cifra foi revisada para atender aos critérios oficiais da nossa Equipe de Qualidade.
tono: Cm
Intro
Gtr. 1 (w/Slight Dist)
E|----------------------------------------------------|
B|----------------------------------------------------|
G|-----4-------------4------------4------------4------|
D|----------------------------------------------------|
A|-2-2---2-2-----2-2---2-2----2-2---2-2----2-2---2-2--|
E|----------------------------------------------------|

Riff 1
Gtr. 1 (w/Dist)
E|---------------------------------|
B|---------------------------------|
G|-----------4---------------------|
D|---------------------------------|
A|-------2-2---2-2--5-5-5-4-4-4-2--|
E|-9\-0----------------------------|
"Yeah! What! What! What!"

Chorus "KISSS the world goodbye"

Riff 2
Gtr. 1 & 2 (W/Dist)
E|------------------------------------------------------------|
B|------------------------------------------------------------|
G|-----4------------------------------------------------------|
D|------------7-7-7-6-6-6-4---------3-5-5-5--6-6-6-6-7-7-7-7--|
A|-2-2---2-2--5-5-5-4-4-4-2---------1\3-3-3--4-4-4-4-5-5-5-5--|
E|------------------------------------------------------------|


Riff 3
Gtr. 1 & 2 (W/Dist)
E|-----------------------------------------------|
B|-----------------------------------------------|
G|-----------------------------------------------|
D|-----------7-7-7-7-6-6-4-----------------------|
A|-9-9\11\9--5-5-5-5-4-4-2-------------9-9-11-9--|
E|-7-7\-9\7----------------------------7-7--9-7--|



Verse Riff
Gtr. 1 (Clean w/Delay)
E|----------------|
B|-10--9-----8-7--|
G|-11-10-----9-7--|
D|-12-11----10-9--|
A|----------------|
E|----------------|
"Baby I'm a survivor..."


Chorus Riff
Gtr. 1 & 2 (W/dist)
E|---------------------|
B|---------------------|
G|---------------------|
D|-----5-5--5-6-6--8-9-|
A|0/-3-5-5--5-6-6--8-9-|
E|-----3-3--3-4-4--6-7-|
"Just Killing Time..."


Fill
E|--------------------------------|
B|--------------------------------|
G|-11-11-11-10-10-10-9-9-9-7-7-7--|
D|--------------------------------|
A|--------------------------------|
E|--------------------------------|


Bridge 
Gtr. 1 (w/Delay)

N.H----del-------|| 
E|---------------------------|
B|------------[12]------8-7--|
G|------[12]------------9-7--|
D|-[12]----------------10-9--|
A|---------------------------|
E|---------------------------|
"I keep my eyes on the stars..."


Mr.Winky
)<)))*>
** Generated using Power Tab Editor by Brad Larsen: The Official Power Tab Web 
Site
 
Otros videos de esta canción
    0 exhibiciones
      • ½ Tono
      • Am
      • Bbm
      • Bm
      • Cm
      • C#m
      • Dm
      • Ebm
      • Em
      • Fm
      • F#m
      • Gm
      • G#m
    • Agregar a la lista

    Afinação da cifra

    Afinador online

      Ops (: Contenido disponible solo en portugués.
      OK