Cifra Club

Swan Dive

Hed Pe

Tab de bajo: Principal
Selo Cifra Club: esta cifra foi revisada para atender aos critérios oficiais da nossa Equipe de Qualidade.
tono: Afinación:
Album: Broke
Tuning: B E A D G
Comments: 
This song is played on a 5-string. this is so easy it gets boring and just make sure 
you play it smoothly and add any extra notes and stuff on the variations i dont have. 
Have fun!!

Intro:
G[----------------------------------------------------]
D[----------------------------------------------------]
A[-11--12---------------------------------------------]
E[---------13----10-10-10--(10)---7-7-7---------------]
B[----------------------------------------------------]

Bridge:
G[------------------------------------------]
D[------------------------------------------]
A[--4--5------------------------------------]
E[--------5-5-5---4-4-4---------------------]
B[------------------------------------------]

Chorus:
G[--------------------------------------------------------]
D[--------------------------------------------------------]
A[--------------------------------------------------------]
E[--4--5--------------------------------------------------]
B[--------6---3-3-3---0-0-0-------------------------------]

                             Order:
verse
bridge
chorus
verse
bridge 
chorus
Little bit (just play note 2)
verse
bridge
chorus
outro (same as little bit)

Any Corrections, suggestions send an E-mail
Thanx
    Daniel
Otros videos de esta canción
    245 exhibiciones

    Afinación de cifrado

    Afinador online

    OK