Cifra Club

Waiting To Die

Hed Pe

Tab de bajo: Principal
Selo Cifra Club: esta cifra foi revisada para atender aos critérios oficiais da nossa Equipe de Qualidade.
tono: Afinación:
Album: Broke
Tabbed By: EvilMilenko (*)

Dropped-D tuned down 1 1/2 steps
(low to high: B, F#, B, E)

verse
E |----------------------------------|
B |----------------------------------|
F#|----------------------------------|
B |3---3---1h3----3---3---3---1h3--3-|


pre-chorus (x2)
E |---------------|
B |---------------|
F#|---2-------2---|
B |3-----6\-3---6\|


chorus (x2)
E |--------------------------|
B |--------------------------|
F#|---2/3----2-----2/3----2--|
B |3------6----4\3-----6----4|


post-chorus one (x2)
E |-----------|
B |-----------|
F#|8\---------|
B |-------1h3-|

* play verse *
* play pre-chorus x2 *
* play chorus x2 *

post-chorus two
E |---------------------|
B |---------------------|
F#|8\--/9-8---6-8\-9--8\|
B |---------------------|


bridge (x12)
E |--------------------|
B |--------------------|
F#|--2-3-----3-----2---|
B |2-----4------6-----4|

* chorus x4 *
* post-chorus 2*


ending
E |-------------------|
B |-------------------|
F#|2-2---------2------|
B |-------3----------3|


That's it! Easy song. Just make sure you can play that bridge fast enough,
and you'll be set. (HED) P.E. is a really cool band. 
http://*
Otros videos de esta canción
    162 exhibiciones

    Afinación de cifrado

    Afinador online

    OK