Cifra Club

Cant Stand Your Face Today

Heideroosjes

Cifrado: Principal (guitarra y guitarra eléctrica)
Selo Cifra Club: esta cifra foi revisada para atender aos critérios oficiais da nossa Equipe de Qualidade.
tono: B
tabbed by David van G. 

RIFF1 (*=8x, #=4x)       RIFF2                 RIFF3
e-------(play 3x)-------|--------(play 2x)----|---------(play 4x)--------|---
B---*---------|-9-
D--9------8-6---6---7---|--4---7---7---7---6--|--9--7--9--9--9--7--7--7--|-9-
A--7------6-4---6---7---|--4---5---7---7---6--|--9--5--7--7--9--5--7--7--|-7-
E---------------4---5---|--2-------5---5---4--|--7-----------7-----5--5--|---
2x the whole line through
then go to the bridge
BRIDGE
e------------------------------------------------------------------------------
B----------------*-------------------------------------*------------------*----
G-----------7-7-9--------------7-7--*-------------7-7-9--------------7-7-9-----
D--7-7-7-77-7-7-9-----7-7-7-77-7-7-9-----7-7-7-77-7-7-9-----7-7-7-77-7-7-9-----
A--7-7-7-77-5-5-7-----7-7-7-77-5-5-9-----7-7-7-77-5-5-7-----7-7-7-77-5-5-7-----
E--5-5-5-55-----------5-5-5-55-----7-----5-5-5-55-----------5-5-5-55-----------

play riff 3 once trough


*the song is tabbed by David van G. , but i modified it a little,
but all credits go to this guy, he did a hell of a job, respect man

capo the punk :*
mail me if you got any comments or suggestions or if you just
want to call me names.
00:00 / 00:00
Otros videos de esta canción
Repetir
Otros videos de esta canción
196 exhibiciones
    • ½ Tono
    • A
    • Bb
    • B
    • C
    • Db
    • D
    • Eb
    • E
    • F
    • F#
    • G
    • Ab
  • Agregar a la lista

Afinación de cifrado

Afinador online

    00:00 / 00:00
    OK