Cifra Club

Damclub Hooligan

Heideroosjes

Cifrado: Principal (guitarra y guitarra eléctrica)
Selo Cifra Club: esta cifra foi revisada para atender aos critérios oficiais da nossa Equipe de Qualidade.
tono: G
(Gitaar Tab)

Tab made by joshua immanuel from indonesia believe it!!
Intro
    A (tweede gitaar slaat dit akkoord aan)    D
    let ring
E||---------------------|---------------------|---------------------|
B||--------------2------|--3------2-----------|--------------2------|
G||-------2-------------|----------------2----|-------2-------------|
D||---------------------|---------------------|--0------------------|
A||--0------------------|---------------------|---------------------|
E||---------------------|---------------------|---------------------|


                      A
---------------------|---------------------|---------------------|
--3------2-----------|--------------2------|--3------2-----------|
----------------2----|-------2-------------|----------------2----|
---------------------|---------------------|---------------------|
---------------------|--0------------------|---------------------|
---------------------|---------------------|---------------------|

D                           (drums vallen in)
---------------------|---------------------|----------------------|
--------------2------|--3------2-----------|--2----2----3----3----|
-------2-------------|----------------2----|--2----2----2----2----|
--0------------------|---------------------|--2----2----2----2----|
---------------------|---------------------|--0----0----0----0----|
---------------------|---------------------|----------------------|

-----------------------|----------------------|-----------------------|
--2----2--3----3--3----|--2----2----3----3----|--2----2--3----3--3----|
--2----2--2----2--2----|--2----2----2----2----|--2----2--2----2--2----|
--2----2--2----2--2----|--0----0----0----0----|--0----0--0----0--0----|
--0----0--0----0--0----|--0----0----0----0----|--0----0--0----0--0----|
-----------------------|----------------------|-----------------------|

----------------------|-----------------------|----------------------|
--2----2----3----3----|--2----2--3----3--3----|----------------------|
--4----4----4----4----|--4----4--4----4--4----|--9----9----9----9----|
--4----4----4----4----|--4----4--4----4--4----|--9----9----9----9----|
--2----2----2----2----|--2----2--2----2--2----|--7----7----7----7----|
----------------------|-----------------------|--7----7----7----7----|

-----------------------|----------------------|-----------------------|
-----------------------|--2----2----3----3----|--2----2--3----3--3----|
--9----9--9----9--9----|--2----2----2----2----|--2----2--2----2--2----|
--7----7--9----9--9----|--2----2----2----2----|--2----2--2----2--2----|
--7----7--7----7--7----|--0----0----0----0----|--0----0--0----0--0----|
--9----9--7----7--7----|----------------------|-----------------------|

----------------------|-----------------------|----------------------|
--2----2----3----3----|--2----2--3----3--3----|--2----2----3----3----|
--2----2----2----2----|--2----2--2----2--2----|--4----4----4----4----|
--0----0----0----0----|--0----0--0----0--0----|--4----4----4----4----|
--0----0----0----0----|--0----0--0----0--0----|--2----2----2----2----|
----------------------|-----------------------|----------------------|

-----------------------|----------------------|-----------------------|
--2----2--3----3--3----|----------------------|-----------------------|
--4----4--4----4--4----|--9----9----9----9----|--9----9--9----9--9----|
--4----4--4----4--4----|--9----9----9----9----|--7----7--9----9--9----|
--2----2--2----2--2----|--7----7----7----7----|--7----7--7----7--7----|
-----------------------|--7----7----7----7----|--9----9--7----7--7----|

---------------------|------------------|---------------------|
--3----3--------2----|------------------|--3----3--------3----|
--2----2--------2----|------------------|--2----2--------2----|
--2----2--------2----|------------------|--0----0--------0----|
--0----0--------0----|------------------|--0----0--------0----|
---------------------|------------------|---------------------|

                           "Zondagmorgen op transport"
------------------|---------------------|------------------|
------------------|--3----3--------2----|------------------|
------------------|--2----2--------2----|------------------|
------------------|--2----2--------2----|------------------|
------------------|--0----0--------0----|------------------|
------------------|---------------------|------------------|

         "Warming-up onder escort"                "Kzet mijn beste
---------------------|------------------|---------------------|
--3----3--------3----|------------------|--3----3--------3----|
--2----2--------2----|------------------|--4----4--------4----|
--0----0--------0----|------------------|--4----4--------4----|
--0----0--------0----|------------------|--2----2--------2----|
---------------------|------------------|---------------------|

vuisje voor"                   "kben alleen maar ik zing in koor"
------------------|----------------------|-----------------------|
------------------|----------------------|-----------------------|
------------------|--9----9----9----9----|--9----9--9----9--9----|
------------------|--9----9----9----9----|--7----7--9----9--9----|
------------------|--7----7----7----7----|--7----7--7----7--7----|
------------------|--7----7----7----7----|--9----9--7----7--7----|

           "al moet ik uren lopen trekken"         "ze gaan er af
---------------------|------------------|---------------------|
--3----3--------2----|------------------|--3----3--------3----|
--2----2--------2----|------------------|--2----2--------2----|
--2----2--------2----|------------------|--0----0--------0----|
--0----0--------0----|------------------|--0----0--------0----|
---------------------|------------------|---------------------|

die bagagerekken"             " 't is een fijne dag van sport"
------------------|---------------------|------------------|
------------------|--3----3--------3----|------------------|
------------------|--4----4--------4----|------------------|
------------------|--4----4--------4----|------------------|
------------------|--2----2--------2----|------------------|
------------------|---------------------|------------------|

             "iedre trein trap ik aan"                  "GORT!"
----------------------|-----------------------|-----------------------|
----------------------|-----------------------|-----------------------|
--9----9----9----9----|--9----9--9----9--9----|--9----9--9----9--9----|
--9----9----9----9----|--7----7--9----9--9----|--7----7--9----9--9----|
--7----7----7----7----|--7----7--7----7--7----|--7----7--7----7--7----|
--7----7----7----7----|--9----9--7----7--7----|--9----9--7----7--7----|

 "Hooligan, ik ben een hooligan,...."
----------------------|-----------------------|----------------------|
--2----2----3----3----|--2----2--3----3--3----|--2----2----3----3----|
--2----2----2----2----|--2----2--2----2--2----|--2----2----2----2----|
--2----2----2----2----|--2----2--2----2--2----|--0----0----0----0----|
--0----0----0----0----|--0----0--0----0--0----|--0----0----0----0----|
----------------------|-----------------------|----------------------|

-----------------------|----------------------|-----------------------|
--2----2--3----3--3----|--2----2----3----3----|--2----2--3----3--3----|
--2----2--2----2--2----|--4----4----4----4----|--4----4--4----4--4----|
--0----0--0----0--0----|--4----4----4----4----|--4----4--4----4--4----|
--0----0--0----0--0----|--2----2----2----2----|--2----2--2----2--2----|
-----------------------|----------------------|-----------------------|

----------------------|-----------------------|----------------------|
----------------------|-----------------------|--2----2----3----3----|
--9----9----9----9----|--9----9--9----9--9----|--2----2----2----2----|
--9----9----9----9----|--7----7--9----9--9----|--2----2----2----2----|
--7----7----7----7----|--7----7--7----7--7----|--0----0----0----0----|
--7----7----7----7----|--9----9--7----7--7----|----------------------|

-----------------------|----------------------|-----------------------|
--2----2--3----3--3----|--2----2----3----3----|--2----2--3----3--3----|
--2----2--2----2--2----|--2----2----2----2----|--2----2--2----2--2----|
--2----2--2----2--2----|--0----0----0----0----|--0----0--0----0--0----|
--0----0--0----0--0----|--0----0----0----0----|--0----0--0----0--0----|
-----------------------|----------------------|-----------------------|

----------------------|-----------------------|----------------------|
--2----2----3----3----|--2----2--3----3--3----|----------------------|
--4----4----4----4----|--4----4--4----4--4----|--9----9----9----9----|
--4----4----4----4----|--4----4--4----4--4----|--9----9----9----9----|
--2----2----2----2----|--2----2--2----2--2----|--7----7----7----7----|
----------------------|-----------------------|--7----7----7----7----|

                         tussenspel
-----------------------|---------------------|---------------------|
-----------------------|--------------2------|--3------2-----------|
--9----9--9----9--9----|-------2-------------|----------------2----|
--7----7--9----9--9----|---------------------|---------------------|
--7----7--7----7--7----|--0------------------|---------------------|
--9----9--7----7--7----|---------------------|---------------------|

---------------------|---------------------|---------------------|
--------------2------|--3------2-----------|--------------2------|
-------2-------------|----------------2----|-------2-------------|
--0------------------|---------------------|---------------------|
---------------------|---------------------|--0------------------|
---------------------|---------------------|---------------------|

---------------------|---------------------|---------------------|
--3------2-----------|--------------2------|--3------2-----------|
----------------2----|-------2-------------|----------------2----|
---------------------|--0------------------|---------------------|
---------------------|---------------------|---------------------|
---------------------|---------------------|---------------------|

           "'t Is een prachtig ritueel"            "Als ik een bushok
---------------------|------------------|---------------------|
--3----3--------2----|------------------|--3----3--------3----|
--2----2--------2----|------------------|--2----2--------2----|
--2----2--------2----|------------------|--0----0--------0----|
--0----0--------0----|------------------|--0----0--------0----|
---------------------|------------------|---------------------|

vierendeel"                  "het vergt een hele hoop talent"
------------------|---------------------|------------------|
------------------|--3----3--------3----|------------------|
------------------|--4----4--------4----|------------------|
------------------|--4----4--------4----|------------------|
------------------|--2----2--------2----|------------------|
------------------|---------------------|------------------|

"zo'n hok zit diep in het cement"                        "k heb de
----------------------|-----------------------|---------------------|
----------------------|-----------------------|--3----3--------2----|
--9----9----9----9----|--9----9--9----9--9----|--2----2--------2----|
--9----9----9----9----|--7----7--9----9--9----|--2----2--------2----|
--7----7----7----7----|--7----7--7----7--7----|--0----0--------0----|
--7----7----7----7----|--9----9--7----7--7----|---------------------|

koningin gebeld"            "kwou zo'n lindje opgespeld"
------------------|---------------------|------------------|
------------------|--3----3--------3----|------------------|
------------------|--2----2--------2----|------------------|
------------------|--0----0--------0----|------------------|
------------------|--0----0--------0----|------------------|
------------------|---------------------|------------------|

             "want al voor de eerste dam"          "verkoop ik mijn
---------------------|------------------|----------------------|
--3----3--------3----|------------------|----------------------|
--4----4--------4----|------------------|--9----9----9----9----|
--4----4--------4----|------------------|--9----9----9----9----|
--2----2--------2----|------------------|--7----7----7----7----|
---------------------|------------------|--7----7----7----7----|

eerste"                           "RAM!"          "Hooligan, ik ben een..."
-----------------------|-----------------------|----------------------|
-----------------------|-----------------------|--2----2----3----3----|
--9----9--9----9--9----|--9----9--9----9--9----|--2----2----2----2----|
--7----7--9----9--9----|--7----7--9----9--9----|--2----2----2----2----|
--7----7--7----7--7----|--7----7--7----7--7----|--0----0----0----0----|
--9----9--7----7--7----|--9----9--7----7--7----|----------------------|

-----------------------|----------------------|-----------------------|
--2----2--3----3--3----|--2----2----3----3----|--2----2--3----3--3----|
--2----2--2----2--2----|--2----2----2----2----|--2----2--2----2--2----|
--2----2--2----2--2----|--0----0----0----0----|--0----0--0----0--0----|
--0----0--0----0--0----|--0----0----0----0----|--0----0--0----0--0----|
-----------------------|----------------------|-----------------------|

 ---------------------|-----------------------|----------------------|
--2----2----3----3----|--2----2--3----3--3----|----------------------|
--4----4----4----4----|--4----4--4----4--4----|--9----9----9----9----|
--4----4----4----4----|--4----4--4----4--4----|--9----9----9----9----|
--2----2----2----2----|--2----2--2----2--2----|--7----7----7----7----|
----------------------|-----------------------|--7----7----7----7----|

-----------------------|----------------------|-----------------------|
-----------------------|--2----2----3----3----|--2----2--3----3--3----|
--9----9--9----9--9----|--2----2----2----2----|--2----2--2----2--2----|
--7----7--9----9--9----|--2----2----2----2----|--2----2--2----2--2----|
--7----7--7----7--7----|--0----0----0----0----|--0----0--0----0--0----|
--9----9--7----7--7----|----------------------|-----------------------|

----------------------|-----------------------|----------------------|
--2----2----3----3----|--2----2--3----3--3----|--2----2----3----3----|
--2----2----2----2----|--2----2--2----2--2----|--4----4----4----4----|
--0----0----0----0----|--0----0--0----0--0----|--4----4----4----4----|
--0----0----0----0----|--0----0--0----0--0----|--2----2----2----2----|
----------------------|-----------------------|----------------------|

-----------------------|----------------------|-----------------------|
--2----2--3----3--3----|----------------------|-----------------------|
--4----4--4----4--4----|--9----9----9----9----|--9----9--9----9--9----|
--4----4--4----4--4----|--9----9----9----9----|--7----7--9----9--9----|
--2----2--2----2--2----|--7----7----7----7----|--7----7--7----7--7----|
-----------------------|--7----7----7----7----|--9----9--7----7--7----|

Bas (als je dit wil spelen gewoon de tweede snaar, de A-snaar aanslaan)
------------------|------------------|------------------|------------------|
------------------|------------------|------------------|------------------|
------------------|------------------|------------------|------------------|
------------------|------------------|------------------|------------------|
------------------|------------------|------------------|------------------|
------------------|------------------|------------------|------------------|

gitaar valt terug in
---------------------|---------------------|---------------------|
--------------2------|--3------2-----------|--------------2------|
-------2-------------|----------------2----|-------2-------------|
---------------------|---------------------|---------------------|
--0------------------|---------------------|--0------------------|
---------------------|---------------------|---------------------|

                       bas: A
---------------------|---------------------|---------------------|
--3------2-----------|--------------2------|--3------2-----------|
----------------2----|-------2-------------|----------------2----|
---------------------|---------------------|---------------------|
---------------------|--0------------------|---------------------|
---------------------|---------------------|---------------------|

B                                           C# (of Cis, zoals je wilt)
---------------------|---------------------|---------------------|
--------------2------|--3------2-----------|--------------2------|
-------2-------------|----------------2----|-------2-------------|
---------------------|---------------------|---------------------|
--0------------------|---------------------|--0------------------|
---------------------|---------------------|---------------------|

                       D
---------------------|---------------------|---------------------|
--3------2-----------|--------------2------|--3------2-----------|
----------------2----|-------2-------------|----------------2----|
---------------------|---------------------|---------------------|
---------------------|--0------------------|---------------------|
---------------------|---------------------|---------------------|

"Hooligan, ik ben een...."
----------------------|-----------------------|----------------------|
--2----2----3----3----|--2----2--3----3--3----|--2----2----3----3----|
--2----2----2----2----|--2----2--2----2--2----|--2----2----2----2----|
--2----2----2----2----|--2----2--2----2--2----|--0----0----0----0----|
--0----0----0----0----|--0----0--0----0--0----|--0----0----0----0----|
----------------------|-----------------------|----------------------|

-----------------------|----------------------|-----------------------|
--2----2--3----3--3----|--2----2----3----3----|--2----2--3----3--3----|
--2----2--2----2--2----|--4----4----4----4----|--4----4--4----4--4----|
--0----0--0----0--0----|--4----4----4----4----|--4----4--4----4--4----|
--0----0--0----0--0----|--2----2----2----2----|--2----2--2----2--2----|
-----------------------|----------------------|-----------------------|

----------------------|-----------------------|----------------------|
----------------------|-----------------------|--2----2----3----3----|
--9----9----9----9----|--9----9--9----9--9----|--2----2----2----2----|
--9----9----9----9----|--7----7--9----9--9----|--2----2----2----2----|
--7----7----7----7----|--7----7--7----7--7----|--0----0----0----0----|
--7----7----7----7----|--9----9--7----7--7----|----------------------|

-----------------------|----------------------|-----------------------|
--2----2--3----3--3----|--2----2----3----3----|--2----2--3----3--3----|
--2----2--2----2--2----|--2----2----2----2----|--2----2--2----2--2----|
--2----2--2----2--2----|--0----0----0----0----|--0----0--0----0--0----|
--0----0--0----0--0----|--0----0----0----0----|--0----0--0----0--0----|
-----------------------|----------------------|-----------------------|

----------------------|-----------------------|----------------------|
--2----2----3----3----|--2----2--3----3--3----|----------------------|
--4----4----4----4----|--4----4--4----4--4----|--9----9----9----9----|
--4----4----4----4----|--4----4--4----4--4----|--9----9----9----9----|
--2----2----2----2----|--2----2--2----2--2----|--7----7----7----7----|
----------------------|-----------------------|--7----7----7----7----|

-----------------------|----------------------|-----------------------|
-----------------------|--2----2----3----3----|--2----2--3----3--3----|
--9----9--9----9--9----|--2----2----2----2----|--2----2--2----2--2----|
--7----7--9----9--9----|--2----2----2----2----|--2----2--2----2--2----|
--7----7--7----7--7----|--0----0----0----0----|--0----0--0----0--0----|
--9----9--7----7--7----|----------------------|-----------------------|

----------------------|-----------------------|----------------------|
--2----2----3----3----|--2----2--3----3--3----|--2----2----3----3----|
--2----2----2----2----|--2----2--2----2--2----|--4----4----4----4----|
--0----0----0----0----|--0----0--0----0--0----|--4----4----4----4----|
--0----0----0----0----|--0----0--0----0--0----|--2----2----2----2----|
----------------------|-----------------------|----------------------|

-----------------------|----------------------|-----------------------|
--2----2--3----3--3----|----------------------|-----------------------|
--4----4--4----4--4----|--9----9----9----9----|--9----9--9----9--9----|
--4----4--4----4--4----|--9----9----9----9----|--7----7--9----9--9----|
--2----2--2----2--2----|--7----7----7----7----|--7----7--7----7--7----|
-----------------------|--7----7----7----7----|--9----9--7----7--7----|

----------------------|-----------------------|----------------------|
--2----2----3----3----|--2----2--3----3--3----|--2----2----3----3----|
--2----2----2----2----|--2----2--2----2--2----|--2----2----2----2----|
--2----2----2----2----|--2----2--2----2--2----|--0----0----0----0----|
--0----0----0----0----|--0----0--0----0--0----|--0----0----0----0----|
----------------------|-----------------------|----------------------|

-----------------------|----------------------|-----------------------|
--2----2--3----3--3----|--2----2----3----3----|--2----2--3----3--3----|
--2----2--2----2--2----|--4----4----4----4----|--4----4--4----4--4----|
--0----0--0----0--0----|--4----4----4----4----|--4----4--4----4--4----|
--0----0--0----0--0----|--2----2----2----2----|--2----2--2----2--2----|
-----------------------|----------------------|-----------------------|

----------------------|-----------------------|----------------------|
----------------------|-----------------------|--2----2----3----3----|
--9----9----9----9----|--9----9--9----9--9----|--2----2----2----2----|
--9----9----9----9----|--7----7--9----9--9----|--2----2----2----2----|
--7----7----7----7----|--7----7--7----7--7----|--0----0----0----0----|
--7----7----7----7----|--9----9--7----7--7----|----------------------|

-----------------------|----------------------|-----------------------|
--2----2--3----3--3----|--2----2----3----3----|--2----2--3----3--3----|
--2----2--2----2--2----|--2----2----2----2----|--2----2--2----2--2----|
--2----2--2----2--2----|--0----0----0----0----|--0----0--0----0--0----|
--0----0--0----0--0----|--0----0----0----0----|--0----0--0----0--0----|
-----------------------|----------------------|-----------------------|

----------------------|-----------------------|----------------------|
--2----2----3----3----|--2----2--3----3--3----|----------------------|
--4----4----4----4----|--4----4--4----4--4----|--9----9----9----9----|
--4----4----4----4----|--4----4--4----4--4----|--9----9----9----9----|
--2----2----2----2----|--2----2--2----2--2----|--7----7----7----7----|
----------------------|-----------------------|--7----7----7----7----|

"...voor ons Steentje"    "DAMCLUB, ONS STEENTJE,......"
-----------------------|---------------------|---------------------|
-----------------------|--------------2------|--3------2-----------|
--9----9--9----9--9----|--2----2-------------|----------------2----|
--7----7--9----9--9----|--2----2-------------|---------------------|
--7----7--7----7--7----|--0----0-------------|---------------------|
--9----9--7----7--7----|---------------------|---------------------|

---------------------|---------------------|---------------------|
--------------2------|--3------2-----------|--------------2------|
-------2-------------|----------------2----|-------2-------------|
---------------------|---------------------|---------------------|
--0------------------|---------------------|--0------------------|
---------------------|---------------------|---------------------|

---------------------|---------------------|---------------------|-----------|
--3------2-----------|--------------2------|--3------2-----------|-----------|
----------------2----|-------2-------------|----------------2----|-----------|
---------------------|---------------------|---------------------|-----------|
---------------------|--0------------------|---------------------|--0--------|
---------------------|---------------------|---------------------|-----------|

(blijf herhalen en fade out)
00:00 / 00:00
Otros videos de esta canción
Repetir
Otros videos de esta canción
231 exhibiciones
    • ½ Tono
    • A
    • Bb
    • B
    • C
    • Db
    • D
    • Eb
    • E
    • F
    • F#
    • G
    • Ab
  • Agregar a la lista

Afinación de cifrado

Afinador online

    00:00 / 00:00
    OK