Cifra Club

Lekker Belangrijk

Heideroosjes

Cifrado: Principal (guitarra y guitarra eléctrica)
Selo Cifra Club: esta cifra foi revisada para atender aos critérios oficiais da nossa Equipe de Qualidade.
tono: F#
Tuning: standard
Email: *
Tabbed by: Ricky Goeree

Intro/verse

E-------------|
B-------------|
G-6-6---6-6-6-|
D-6-6-4-6-6-6-|
A-4-4-4-4-4-4-|
E-----2-------|

Chorus

E-------------------------------------------------------------|
B-------------------------------------------------------------|
G---------------------------------6-6-6-6---------6-6-6-6-----|
D-4-4-4-4-4-4-4-4-8-8-8-8-8-8-8-8-6-6-6-6-4-4-4-4-6-6-6-6-4-4-|
A-4-4-4-4-4-4-4-4-8-8-8-8-8-8-8-8-4-4-4-4-4-4-4-4-4-4-4-4-4-4-|
E-2-2-2-2-2-2-2-2-6-6-6-6-6-6-6-6---------2-2-2-2---------2-2-|

E----------------------|
B----------------------|
G----------------------|
D-4-4--8-8-8-8-8-8-8-8-|
A-4-4--8-8-8-8-8-8-8-8-|
E-2-2--6-6-6-6-6-6-6-6-|

Riff

E--------------------------------------------|
B--------------------------9-9-9-9-9-9-------|
G-10-10-10-10-10-10-11-11--------------11-11-|
D--------------------------------------------|
A--------------------------------------------|
E--------------------------------------------|
00:00 / 00:00
Otros videos de esta canción
Repetir
Otros videos de esta canción
211 exhibiciones
    • ½ Tono
    • A
    • Bb
    • B
    • C
    • Db
    • D
    • Eb
    • E
    • F
    • F#
    • G
    • Ab
  • Agregar a la lista

Afinación de cifrado

Afinador online

    00:00 / 00:00
    OK