Cifra Club

Some Lines About A Lovesong

Heideroosjes

Cifrado: Principal (guitarra y guitarra eléctrica)
Selo Cifra Club: esta cifra foi revisada para atender aos critérios oficiais da nossa Equipe de Qualidade.
tono: E
intro:
e------------------------------------------------------------------------|
B------------------------------------------------------------------------|
G--8-9-9-9-------6-7-7-7--(3x)----8-9-9-9-------6------------------------|
D--8-9-9-9-------6-7-7-7----------8-9-9-9-------6------------------------|
A--6-7-7-7-------4-5-5-5----------6-7-7-7-------4------------------------|
E------------------------------------------------------------------------|

verse:
e-----------------------------------------------------------------------|
B-----------------------------------------------------------------------|
G--9999--7777---8888--6666---9999--7777---6666--8888------(2x)----------|
D--9999--7777---8888--6666---9999--7777---6666--8888--------------------|
A--7777--5555---6666--4444---7777--5555---4444--6666--------------------|
E-----------------------------------------------------------------------|

bridge:
e-----------------------------------------------------------------------|
B-----------------------------------------------------------------------|
G--9-----7-----6------8-------------------------------------------------|
D--9-----7-----6------8-------------------------------------------------|
A--7-----5-----4------6-------------------------------------------------|
E-----------------------------------------------------------------------|

verse again +at the end of the second time: e---------------------------|
                                            B---------------------------|
                                            G--99999999-strum very fast-|
                                            D--99999999-----------------|
                                            A--77777777-----------------|
                                            E---------------------------|

chorus:
after the above fast chord you play it 8 times palm-muted on the E-string
(so a string lower), then Marco sings(while he's singing don't play) and
after the singing you play it again palm-muted
you do this for 2 times, and then Marco sings again (without guitars)

then just play the verse two times with the bridge in the middle

chorus again but at the last line the palm-muted chord
00:00 / 00:00
Otros videos de esta canción
Repetir
Otros videos de esta canción
176 exhibiciones
    • ½ Tono
    • A
    • Bb
    • B
    • C
    • Db
    • D
    • Eb
    • E
    • F
    • F#
    • G
    • Ab
  • Agregar a la lista

Afinación de cifrado

Afinador online

    00:00 / 00:00
    OK