Cifra Club

The Riddle

Heideroosjes

Cifrado: Principal (guitarra y guitarra eléctrica)
Selo Cifra Club: esta cifra foi revisada para atender aos critérios oficiais da nossa Equipe de Qualidade.
tono: D
Intro
E|------------------------------------------------|
B|------------------------------------------------|
G|---------4--6-----------9-----------------------|
D|---6--4--4--6-----6--4--9--9--------------------|
A|---6--4--2--4-----6--4--7--9--------------------|
E|---4--2-----------4--2-----7--------------------|

end of intro
E|------------------------------------------------|
B|------------------------------------------------|
G|---6--8--9--11----------------------------------|
D|---x--x--x--X---6-------------------------------|
A|---4--6--7--9---6-------------------------------|
E|----------------4-------------------------------|

"with time to carry on"
E|------------------------------------------------|
B|------------------------------------------------|
G|------------------------------------------------|
D|------------------------------------------------|
A|---4--2-----------------------------------------|
E|---------5--4-----------------------------------|

"Brave !"
E|-----------------------------------------------------------------|
B|-----------------------------------------------------------------|
G|---9----------------6--8--9--11----------------------------------|
D|---9(4x)--9---------x--x--x--X---6-------------------------------|
A|---7------9(4x)-----4--6--7--9---6-------------------------------|
E|----------7----------------------4-------------------------------|

Interlude
E|--------------------------------------------------|
B|--------------------------------------------------|
G|-----------------6--------------------------------|
D|---6-------6--4--6(5x)--6--4----------------------|
A|---6(5x)---6--4--4------6--4----------------------|
E|---4-------4--2---------4--2----------------------|

Chorus
E|------------------------------------------------|
B|------------------------------------------------|
G|---------4--6-----------9-----------------------|
D|---6--4--4--6-----6--4--9--9--------------------|
A|---6--4--2--4-----6--4--7--9--------------------|
E|---4--2-----------4--2-----7--------------------|

End of chorus
E|------------------------------------------------|
B|------------------------------------------------|
G|---6--8--9--11----------------------------------|
D|---x--x--x--X---6-------------------------------|
A|---4--6--7--9---6-------------------------------|
E|----------------4-------------------------------|

Second verse in the same order as first one

Chorus

Bridge
E|------------------------------------------------|
B|------------------------------------------------|
G|--------7---------------------------------------|
D|--7--3--7---------------------------------------|
A|--7--3--5---------------------------------------|
E|--5--1------------------------------------------|

End of chorus

Chorus

End of chorus

E|------------------------------------------------|
B|------------------------------------------------|
G|------------------------------------------------|
D|----------------6-------------------------------|
A|---4--6--7--9---6-------------------------------|
E|----------------4-------------------------------|
00:00 / 00:00
Otros videos de esta canción
Repetir
Otros videos de esta canción
    • ½ Tono
    • A
    • Bb
    • B
    • C
    • Db
    • D
    • Eb
    • E
    • F
    • F#
    • G
    • Ab
  • Agregar a la lista

Afinación de cifrado

Afinador online

    00:00 / 00:00
    OK