Cifra Club

A tale that wasn't right

Helloween

Cifrado: Principal (guitarra y guitarra eléctrica)
tono: C
(intro) Am Em

       Am         E
Here I stand all alone
        Am             F
Have my mind turned to stone
        Dm                   Am
Have my heart filled up with ice
    E                  Am     G
To avoid it's breakin' twice

        Am                E
Thanx to you, my dear old friend
              Am               F
But you can't help, this is the end
     Dm               Am
Of a tale that wasn't right
        E               Am
I won't have no sleep tonight

(refrão)
F5 G5 A5           G5
In my heart, in my soul
         F5      C5      G5
I really hate to pay this to-ll
F5     G5 A5                G5
Should be strong, young and bold
        F5           E5      A5
But the only thing I feel is pain

       Am                E
It's alright, we'll stay friends
            Am      F
Trustin' in my confidence
          Dm              Am
And let's say it's just alright
          E            Am
You won't sleep alone tonight

(refrão)

(solo)
           F5           G5              E5
E|---------------------------------------------------------------|
B|---------------------------------------------------------------|
G|---------------9--12-\-9-/10----------------7--10-\-7-/-9------|
D|---7--9--10-7-------------------5--7--9--5---------------------|
A|-7----------------------------5--------------------------------|
E|---------------------------------------------------------------|
    F5             D5              E5             A5
E|---------------------------------------------------------------|
B|---------------------------------------------------------------|
G|---------------------15--17\15--------------------7------------|
D|---3--5--7--3---7-------------15--------7--9--10----7----------|
A|-3------------------------------------7------------------------|
E|---------------------------------------------------------------|

F5   G5 A5             G5
With my heart, with my soul
          F5      C5        G5
Some guys cry you bought and so-ld
F5      G5   A5                G5
They've been strong, young and bold
         F5                   E5
And they say, play this song again

(refrão)
Composición de Michael Weikath
Colaboración y revisión:
  • Matheus Vilar
  • Eduardo
5.060 vistas
    • ½ Tono
    • A
    • Bb
    • B
    • C
    • Db
    • D
    • Eb
    • E
    • F
    • F#
    • G
    • Ab
  • Agregar a la lista

    0 comentarios

    Ver todos los comentarios

    ¿Lograste tocar?

    6 Tocaron 0 Aún no

    ¡Graba un video tocando A tale that wasn't right y envíanoslo!

    00:00 / 00:00
    Outros vídeos desta música
    Repetir Calidad Automático
    Outros vídeos desta música
    00:00 / 00:00
    Automático
    OK