Cifra Club

A Tale That Wasn't Right

Helloween

Cifrado: Principal (guitarra y guitarra eléctrica)
tono: Am
[Intro] Am  E  Am  F  Dm  Am  E  
             Am

[Tab - Solo Introdução]

[Parte 1 De 4]
E|---------------------------------------------------|
B|-----------------12b13----10---12b13r12~---10b12~--|
G|-9h10p9h10p...-------------------------------------|
D|---------------------------------------------------|
A|---------------------------------------------------|
E|---------------------------------------------------|

Parte 2 de 4
E|-10b12--10b12----10--8--7h8------------------------|
B|-----------------------------10--------------------|
G|---------------------------------------------------|
D|---------------------------------------------------|
A|---------------------------------------------------|
E|---------------------------------------------------|

E|---------------------------------------------------|
B|-10--12--12b13--12--10---13b15--13--12h13p12p10----|
G|---------------------------------------------------|
D|---------------------------------------------------|
A|---------------------------------------------------|
E|---------------------------------------------------|

Parte 3 de 4
E|-15b17--15b17----15--13--12h13---------------------|
B|--------------------------------15-----------------|
G|---------------------------------------------------|
D|---------------------------------------------------|
A|---------------------------------------------------|
E|---------------------------------------------------|

E|---------------------------------------------------|
B|----10--12--12b13--12---10h12p10\9h10~-------------|
G|-9-------------------------------------------------|
D|---------------------------------------------------|
A|---------------------------------------------------|
E|---------------------------------------------------|

Parte 4 de 4
E|---------------------------------------------------|
B|----10--12b13r12~~-----13b15--13~----10b12--10~----|
G|-9-------------------------------------------------|
D|---------------------------------------------------|
A|---------------------------------------------------|
E|---------------------------------------------------|

[Primeira Parte]

         Am        E
Here I stand all alone
         Am              F
Have my mind turned to stone
         Dm                  Am
Have my heart filled up with ice
     E                   Am  ( G )
To avoid it's breakin' twice

           Am                E
Thanks to you, my dear old friend
               Am               F
But you can't help, this is the end
      Dm               Am
Of a tale that wasn't right
         E               Am
I won't have no sleep tonight

[Refrão]

F5  G5  A5     
In my  heart 
F5  A5  G5
In my  soul
          F5      C5       Bb5  G5
I really hate to pay this toll
F5      G5   A5           
Should be strong
F5    A5   G5
Young and bold
        F5            E5      A5
But the only thing I feel is pain

[Segunda Parte]

        Am                 E
It's alright, we'll stay friends
         Am          F
Trustin' in my confidence
           Dm              Am
And let's say it's just alright
            E            Am
You won't sleep alone tonight

[Refrão]

F5  G5  A5     
In my  heart 
F5  A5  G5
In my  soul
          F5      C5       Bb5  G5
I really hate to pay this toll
F5      G5   A5           
Should be strong
F5    A5   G5
Young and bold
        F5            E5      A5
But the only thing I feel is pain

[Solo]

[Tab - Solo] 

Parte 1 de 4
E|---------------------------------------------------|
B|---------------------5--6b8r----6p5-5h6------------|
G|----2--4--4b5--2-----------------------------------|
D|-2-------------------------------------------------|
A|---------------------------------------------------|
E|---------------------------------------------------|

Parte 2 de 4
E|---------------------------------------------------|
B|---------------------------------------------------|
G|----------7b9-------7--9b10r----9h10p9p8-9~--------|
D|----5--7-------5-----------------------------------|
A|-5-------------------------------------------------|
E|---------------------------------------------------|

[Parte 3 De 4]
                                   T
E|---------------------------------------------------|
B|---------------------------------------------------|
G|-----------9b10-------9-10b12---b14r12p10~---------|
D|----7--10--------7---------------------------------|
A|-8-------------------------------------------------|
E|---------------------------------------------------|

Parte 4 de 4
E|---------------------------------------------------|
B|---------------------------------------------------|
G|-------9b10--9~------------------------------------|
D|----6--------------9b10----7~----------------------|
A|-7-------------------------------------------------|
E|---------------------------------------------------|

[Refrão Final]

 F5   G5  A5   
With my  heart
 F5   A5  G5
With my  soul
            F5     C5         Bb5  G5
Some guys cry you bought and so-ld
  F5     G5     A5      
They've been strong
 F5   G5   A5  
Young and bold
          F5                   E5
And they say, play this song again

F5  G5  A5     
In my  heart 
F5  A5  G5
In my  soul
          F5      C5       Bb5  G5
I really hate to pay this toll
F5      G5   A5           
Should be strong
F5    A5   G5
Young and bold
        F5            E5      A5
But the only thing I feel is pain
00:00 / 00:00
Otros videos de esta canción
Repetir
Otros videos de esta canción
Composición de Michael Weikath
Colaboración y revisión:
  • Vinícius Dias
  • Lucas Kappaun
3.167 exhibiciones
    • ½ Tono
    • Am
    • Bbm
    • Bm
    • Cm
    • C#m
    • Dm
    • Ebm
    • Em
    • Fm
    • F#m
    • Gm
    • G#m
  • Agregar a la lista
    00:00 / 00:00
    Capítulos
    • Tocando a Música
    • Apresentação / Equipamentos
    • Solo da Introdução - Parte 1 de 4
    • Solo da Introdução - Parte 2 de 4
    • Solo da Introdução - Parte 3 de 4
    • Solo da Introdução - Parte 4 de 4
    • Acordes da Música
    • Ensinando Ritmo da Música
    • Pedais
    • Ensinando a Base do Refrão
    • Solo da Música - Parte 1 de 4
    • Solo da Música - Parte 2 de 4
    • Solo da Música - Parte 3 de 4
    • Solo da Música - Parte 4 de 4
    • Dicas do Solo
    • Encerramento
    OK