Cifra Club

Heavy Metal (Is the Law)

Helloween

Cifrado: Principal (guitarra y guitarra eléctrica)
tono: Db
Fazer essa intro varias vezes;Canto;
|---------------------|----------------------------|
|---------------------|----------------------------|
|---------------------|----------------------------|
|---------------------|------------5-5-3-3---------|2 vezes
|---------------------|--------------------6-6-5-5-|
|-6p3333333-6p3333333-|-6p3333333------------------|
                                                                                                                                                          
|---------------------|---------------------------|
|---------------------|---------------------------|
|---------------------|---------------------------|
|---------------------|---------------------------|
|---------------------|---------------------------|
|-3p1111111-3p1111111-|-3p1111111-1-1-3-3-5-5-6-6-|
                                             #
|-----------------|-------------------|---------------------|
|-----------------|-------------------|---------------------|
|-----------------|-------------------|---------------------|
|-------------1-0-|-------------------|---------------------|2 vezes
|-1-0-3-1-3-1-----|-------------------|---------------------|a partir
|-----------------|-3p111111111111111-|-6666-5555-3333-1111-|de #

|--------------------|---------------|
|--------------------|---------------|
|--------------------|---------------|
|--------------------|----------8-12-|
|-5555555555555555---|-55555555-6-10-|
|--------------------|---------------|

Repetir todo o canto;

|------------------|------------|
|------------------|------------|
|------------------|------------|
|------------------|----------7-|
|-5555555555555555-|-55555555-5-|
|------------------|------------|

Refrão;

|------|------|-------|-----------------|-------|------|-------|
|------|------|-------|-----------------|-------|------|-------|
|------|------|-------|-----------------|-------|------|-------|
|----8-|----7-|-8--10-|-4-5-7-8-7-5-----|-8--10-|-7----|-8--10-|
|-5--6-|-8--5-|-6--8--|-------------8-5-|-6--8--|-5----|-6--8--|
|-3----|-6----|-------|-----------------|-------|----6-|-------|

Repete intro e faz o solo; Solo 1;

|----|----------------------|-------------------|
|----|-3~-------------------|-------------------|
|-5b-|----5-3h5p3h5p0h3p0h3-|-3h5p3h5p0h3p0h3-0-|
|----|----------------------|-------------------|
|----|----------------------|-------------------|
|----|----------------------|-------------------|

|-------------------------------|------------|---------------|
|-------------------------------|------------|---------------|
|-19-17-15-14-12-10-8-7-5-3-2-0-|--0-\----/--|-----------7-8-|
|-------------------------------|--0--\--/---|----7-8-10-----|
|-------------------------------|------\/----|-10------------|
|-------------------------------|------------|---------------|

|---------------|---------------|-13101010----------------------------|
|---------------|---------------|----------13111010-------------------|
|-8br---------7-|---------------|-------------------12111010----------|
|-----10-8-10---|-10br-8-7-8-10-|----------------------------12111010-|
|---------------|---------------|-------------------------------------|
|---------------|---------------|-------------------------------------|
                                                                                 Dueto;
|--------------------------------|--------------|-------------------|
|--------------------------------|--------------|-------------------|
|--------------------------------|--------------|-------------------|
|--------------------------------|-12----12b-12-|-13-12h13p12-10----|
|-12121010------------9910101111-|----13--------|----------------13-|
|---------131310101313-----------|--------------|-------------------|

|--------------|------------------|-----------|------------------|
|--------------|------------------|-----------|------------------|
|--------------|------------------|-----------|------------------|
|-10----10b-10-|-12-10h12p10-8----|-8----8b-8-|-10-8h10p8-7-8888-|
|----12--------|---------------12-|---10------|------------------|
|--------------|------------------|-----------|------------------|

|------------------------|-------------------------|
|------------------------|-------------------------|
|------------------------|-------------------------|
|-7777-------------------|-------------------------|fazer dueto 2x
|-----10101010-8888-6666-|-------------------------|
|------------------------|-10101010-8888-6666-88-8-|

|-------------------------|-------------------|-------------------|
|-18b-18b-18b-------------|-------------------|-------------------|
|-------------10b-10b-10b-|-------------------|-------------------|
|-------------------------|-------------------|-------------------|
|----4 vezes--------------|-55-33-----3-------|-55-33-----3-------|
|-------------------------|-------6-5---6-5-3-|-------6-5---6-5-3-|

|---------------------|---------------|
|---------------------|---------------|
|---------------------|---------------|
|---------------------|---------------|2 vezes
|---------------------|-------1-------|
|-1h3333333-1h3333333-|-1h333---3-1-3-|

Refrão 2;

|------|------|-------|-----------------|-------|------|
|------|------|-------|-----------------|-------|------|
|------|------|-------|-----------------|-------|------|
|----8-|----7-|-8--10-|-------5---------|-8--10-|-7----|
|-5--6-|-8--5-|-6--8--|-5-6-8---8-6-5---|-6--8--|-5--5-|
|-3----|-6----|-------|---------------6-|-------|----3-|

|-------------------|---------------------|------|------|-------|
|-------------------|---------------------|------|------|-------|
|-------------------|---------------------|------|------|-------|
|-7--------7--------|-7----7----7----7----|----8-|----7-|-8--10-|
|-5-555555-5-555555-|-5-55-5-55-5-55-5-55-|-5--6-|-8--5-|-6--8--|
|-------------------|---------------------|-3----|-6----|-------|

|-----------------|-------|------|-------|---------------------|
|-----------------|-------|------|-------|---------------------|
|-----------------|-------|------|-------|---------------------|
|-------5---------|-8--10-|-7----|-8--10-|---------------------|
|-5-6-8---8-6-5---|-6--8--|-5--5-|-6--8--|---------------------|
|---------------6-|-------|----3-|-------|-6p3333333-6p3333333-|

|--------------------|-----------------|-------------------|
|--------------------|-----------------|-------------------|
|--------------------|-----------------|------------5\--/--|
|--------------------|-------------1-0-|------------5-\/---|
|-----------66553311-|-----1-0-3-1-----|-------------------|
|-6p3333333----------|-3-1-------------|-6p3333333---------|
Composición de Helloween / Michael Weikath
Colaboración y revisión:
  • Valker Renato
111 vistas
    • ½ Tono
    • A
    • Bb
    • B
    • C
    • Db
    • D
    • Eb
    • E
    • F
    • F#
    • G
    • Ab
  • Agregar a la lista

    0 comentarios

    Ver todos los comentarios

    ¿Lograste tocar?

    0 Tocaron 0 Aún no

    ¡Graba un video tocando Heavy Metal (Is the Law) y envíanoslo!

    00:00 / 00:00
    Outros vídeos desta música
    Repetir Calidad Automático
    Outros vídeos desta música
    00:00 / 00:00
    Automático
    OK