Cifra Club

In The Middle Of A Heartbeat

Helloween

Cifrado: Principal (guitarra y guitarra eléctrica)
tono: F
Intro / Versos:
E|----------------------------------|----------------------------------|
B|-2h3-----3-------0h1-----1--------|-------1--------------------------|
G|-----2-------2-------2-------2----|-0h2-----2-----------0-------0----|
D|-------0-------0-------0-------0--|-----0-------------2-------0------|
A|----------------------------------|-------------0-2-3-------2--------|
E|----------------------------------|----------------------------------|

E|-1p0-------------1p0--------------|
B|------3---------------3-----------|
G|--------2-------------------------|
D|----------0-----------------------|
A|----------------------------------|
E|----------------------------------|

Verso:
Tell me pretty girl do you know who I am?
Have you ever seen me as a friend?
Everything we have is those hungry nights
But there so much left unsatisfied

PONTE:

E|-------------------------0--------0-----------------0--|
h|----1-0-1---1-0-1---1-0-1----1-0-1----1-0-1---1-0-1-0--|
G|-------------------2--------2-----------------------0--|
D|---3-------3------2--------2---------3-------3------2--|
A|--3-------3------0--------0---------3-------3-------2--|
E|-1-------1-------------------------1-------1--------0--|


REFRÃO (distorção):

E|-------------------------------------------------------|
hb|-------------------------------------------------------|
G|--7---2--3---7---3---5---------------------------------|
D|--7---2--3---7---3---5-------------7-------------------|
A|--5---0--1---5---1---3-------------7------5-8-7-5-3----|
E|-------------------------1-3-5-7-8-5--5-8--------------|
                            . . . . .    . . . . . . .
E|-------------------------------------------------------|
hb|-------------------------------------------------------|
G|--7---2--3---7---3---5---------------------------------|
D|--7---2--3---7---3---5-------------7------0-2-3-2-0----|
A|--5---0--1---5---1---3-------------7--0-3-----------3--|
E|-------------------------1-3-5-7-8-5-------------------|
                            . . . . .
SOLO1:

E|-------------------------------------------------------|
hb|--13b15~~-13~~-12h13p12--------------------------------|
G|-----------------------12-14~~---14p12-----------------|
D|--------------------------------------14--12/0---------|
A|----------------------------------------15-------------|
E|-------------------------------------------------------|

Verso tocado com este ... e tocado mais 2 vezes !

PONTE:

REFRÃO:

E|-------------------------------------------------------|
hb|-------------------------------------------------------|
G|--7---2--3---7---3---5---------------------------------|
D|--7---2--3---7---3---5-------------7-------------------|
A|--5---0--1---5---1---3-------------7------5-8-7-5-3----|
E|-------------------------1-3-5-7-8-5--5-8--------------|
                            . . . . .    . . . . . . .

E|-------------------------------------------------------|
hb|-------------------------------------------------------|
G|--7---2--3---7---3---5---------------------------------|
D|--7---2--3---7---3---5-------------7-------------------|
A|--5---0--1---5---1---3-------------7------5-8-7-5-3----|
E|-------------------------1-3-5-7-8-5--5-8--------------|
                            . . . . .    . . . . . . .
E|-----------------|
hb|-----------------|
G|-----------------|
D|-----------7-----|
A|-----------7-----|
E|-1-3-5-7-8-5-----|
    . . . . .




SOLO 2 (acústico)

E|--1p0-----1--5p1----1--3p1----1----555-0---------------|
hb|--3--3---3-3-3--3--3-3-3--3--3-3---777-----------------|
G|------2----------2---------2---------------------------|
D|--------0---------0---------0----2---------------------|
A|---------------------------------0---------------------|
E|-------------------------------------------------------|

E|--1p0-----1--5p1---5p1-1-3p1----1----8-8-8---3---------|
hb|--3--3---3-3-3--3--3--3-----3--3-3---101010--5---------|
G|------2----------2-----------2-------------------------|
D|--------0---------------------0----2-------------------|
A|-----------------------------------0-------------------|
E|-------------------------------------------------------|

E|------6-----8--12-8h10p8-15-13-12-10-------------------|
hb|-----6-----8-------------------------13----------------|
G|----7-----9--------------------------------------------|
D|---8----10---------------------------------------------|
A|-------------------------------------------------------|
E|-------------------------------------------------------|

E|---------10------12----151515-12-----------------------|
hb|-------10------12---13---------------------------------|
G|-----11------13----------------------------------------|
D|---12------14------------------------------------------|
A|-------------------------------------------------------|
E|-------------------------------------------------------|

E|------6----8--12-8h10p8-15-13-12-17-----5--7~|
hb|-----6----8--------------------------3-----------------|
G|----7----9------------------------2--------------------|
D|---8---10----------------------------------------------|
A|---------------------------------------------------------|
E|---------------------------------------------------------|



Refrão:
Dm        Am                Bb
out in a middle of a heart beat
( Bb )     Dm                  Bb
And I know that I'm doin' right
( Bb )             C             Dm  Am
Together we are still so far apart
Dm        Am                Bb
out in a middle of a heart beat
( Bb )     Dm                  Bb
And the more I try to be your light
( Bb )             C             Dm  Am
I can't get any closer to your heart

(Repete tudo)

Verso 2:
Now that I'm afraid just to ask for more
I'm still waiting as I did before
If you won't be sad, then it's not to late
We could rely upon a fate

(Ponte)

Refrão:
Dm        Am                Bb
out in a middle of a heart beat
( Bb )     Dm                  Bb
And I know that I'm doin' right
( Bb )             C             Dm  Am
Together we are still so far apart
Dm        Am                Bb
out in a middle of a heart beat
( Bb )     Dm                  Bb
And the more I try to be your light
( Bb )             C             Dm  Am
I can't get any closer to your heart
Composición de Andi Deris / Michael Weikath
Colaboración y revisión:
1.944 vistas
    • ½ Tono
    • A
    • Bb
    • B
    • C
    • Db
    • D
    • Eb
    • E
    • F
    • F#
    • G
    • Ab
  • Agregar a la lista

    0 comentarios

    Ver todos los comentarios

    ¿Lograste tocar?

    0 Tocaron 2 Aún no

    ¡Graba un video tocando In The Middle Of A Heartbeat y envíanoslo!

    00:00 / 00:00
    Outros vídeos desta música
    Repetir Calidad Automático
    Outros vídeos desta música
    00:00 / 00:00
    Automático
    OK