Cifra Club

Number One

Helloween

Cifrado: Principal (guitarra y guitarra eléctrica)
tono: G
Intro

Guitar 1
--------------------------------------------------------------------- |
--------------------------------------------------------------------- |
--------------------------------------------------------------------- |--- tocar 2X
--------------------------------------------------------------------- |
---------------------------------------------------------------------
-3-3-3-3-3-3-0-3-3-3-3-3-0-3-3-3-3-3-0-3-3-3-3-3-5------------------- |
 
Essa parte toca junto com o vocal

Each time when one more year was over You refused to hear heaven's 

---------------------------------------------------------------------
---------------------------------------------------------------------
---------------------------------------------------------------------
---------------------------------------------------------------------
---------------------------------------------------------------------
--3--3--3--3--3---3--3--3--3--3--1-1--1--3--3--3--3--3--3--3--3--3--3

bells sound  And the happiness in your heart's been set lower

---------------------------------------------------------------------
---------------------------------------------------------------------
---------------------------------------------------------------------
---------------------------------------------------------------------
-3--3--5--5--5--5--------------------3--3--3--3--3--3--3--3--3-------
--------------------5--5--5--5--5--5---------------------------------

You were searching for friends but no one seemed to be 'round

---------------------------------------------------------------------
---------------------------------------------------------------------
---------------------------------------------------------------------
---------------------------------------------------------------------
--------------------------------------------------------------3b-----
-1--1--1--1--1--1--1--1--1--1--3--3--3--3--3--3--3--3--3--3----------


Guitar2

---------------------------------------------------------------------
---------------------------------------------------------------------
---------------------------------------------------------------5-----
------------------------------------------------5--5--x--5--x--5-----
------------------------------------------------5--5--x--5--x--3-----
------------------------------------------------3--3--x--3--x--------

You merely should think of the good times 


Guitar 1

---------------------------------------------------------------------
---------------------------------------------------------------------
---------------------------------------------------------------------
---------------------------------------------------------------------
---------------------------------------------------------------------
--3--3--3--3--3---3--3--3--3--1--1--1--1--1--------------------------

'Cos there are so many ways you can go

---------------------------------------------------------------------
---------------------------------------------------------------------
---------------------------------------------------------------------
---------------------------------------------------------------------
---------------------------------------------------------------------
--3--3--3--3--3---3--3--3--5--5--5--5--5--5--------------------------

Take a look at yourself, you're still very young

---------------------------------------------------------------------
---------------------------------------------------------------------
---------------------------------------------------------------------
---------------------------------------------------------------------
--5--5--5--5--5--5--5------------------------------------------------
-----------------------3--3--3--3--3--3--3--3--3---------------------

And big aims always take very long

---------------------------------------------------------------------
---------------------------------------------------------------------
---------------------------------------------------------------------
---------------------------------------------------------------------
---------------------------------------------------------------------
--1--1--1--1--1--1--1--1--3--3--3--3--3--3---------------------------


Refrão

Guitar2

Now it's time for happiness, stay hard and trust your fate

---------------------------------------------------------------------
---------------------------------------------------------------------
-7-----------------------------------------------------7-------------
-7------------------7----------5-------------7---------7-------------
-5------------------7----------5-------------7---------5-------------
--------------------5----------3-------------5-----------------------

Don't forget you're something else you'll never be too late

---------------------------------------------------------------------
---------------------------------------------------------------------
-7-----------------------------------------------------7-------------
-7------------------7----------5-------------7---------7-------------
-5------------------7----------5-------------7---------5-------------
--------------------5----------3-------------5-----------------------

Guitar 2

---------------------------------------------------------------------
---------------------------------------------------------------------
---------------------------------------------------------------------
---------------------------------------------------------------------
--------------------------------------------------------5-4-2--------
------------------------------------------------------------- 4-2-1--


Trust your father's mighty spell you'll never be alone

---------------------------------------------------------------------
---------------------------------------------------------------------
-7-----------------------------------------------------7-------------
-7------------------7----------5-------------7---------7-------------
-5------------------7----------5-------------7---------5-------------
--------------------5----------3-------------5-----------------------

Fate will always turn out well and you'll be number one

---------------------------------------------------------------------
---------------------------------------------------------------------
-7-----------------------------------------------------7-------------
-7------------------7----------5-------------7---------7-------------
-5------------------7----------5-------------7---------5-------------
--------------------5----------3-------------5-----------------------

A segunda Parte é identica a Primeira
Escute bem a musica pra sabe a hora q se troca as posições



Solo
Guitar 1

---------------------------------------------------------------------
-----------------------------------------------11b(13)11-11b(13)-----
---------------------------------------------------------------------
-9~~~-9-11-13-11-9----9----------------------------------------------
-------------------12---12-11-9-12-11-9-8-12~~-----------------------
---------------------------------------------------------------------

-11-8---------------------------11-8---------------------------------
------9-8-10-8-----------------------9-8-10-8------------------------
---------------9-8-10-8-----------------------9-8-10-8---------------
------------------------9-8-10-------------------------9-8-10-8------
---------------------------------------------------------------------
-----------------------------------------------------------------7~~-

---------------------------------------------------------------------
---------------------------------11b(13)~~---------------------------
------------------------------11-------------------------------------
-------------------7-10-11-12----------------------------------------
----------8-6-8-10---------------------------------------------------
-9~~--7>9------------------------------------------------------------


Aqui começa o refrão denovo
e repete varias vezes



Banda R_Zero Cascavel Parana
Duduh_ Guitarrista
oheuaky@hotmail.com
00:00 / 00:00
Otros videos de esta canción
Repetir
Otros videos de esta canción
Composición de Helloween
Colaboración y revisión:
  • Eduardo Bonete
322 exhibiciones
    • ½ Tono
    • A
    • Bb
    • B
    • C
    • Db
    • D
    • Eb
    • E
    • F
    • F#
    • G
    • Ab
  • Agregar a la lista
    00:00 / 00:00
    OK