Cifra Club

Há Um Lugar

Heloísa Rosa

Cifrado: Principal (guitarra y guitarra eléctrica)
Selo Cifra Club: esta cifra foi revisada para atender aos critérios oficiais da nossa Equipe de Qualidade.
tono: G
[Intro] C9  G

[Tab - Intro]

           C9                         G
E|---------------------------------------------------------------|
B|-----------8---8~------8h10------------------------------------|
G|-------7/9---9-----7/9-------------7--------------7-7h9p7------|
D|-----------------------------7-7h9----7/9---7/9-9--------------|
A|---------------------------------------------------------------|
E|---------------------------------------------------------------|

         C9                        G
E|-------------7-------------------------------------------------|
B|---------8--------8-8-7-7--------------------------------------|
G|-----7/9---9------9-9-7-7-7h9-7h9--7h9-7------7h9-7------------|
D|--------------------------7h9-7h9-----------9-------9-9--7--5~-|
A|---------------------------------------------------------------|
E|---------------------------------------------------------------|

         C9
Há um lugar de descanso em Ti
         G
Há um lugar de refrigério em Ti
         C9            D       Em
Há um lugar onde a verdade reina
        C           G
Esse lugar é no Senhor

( C9  G )

         C9
Há um lugar onde as pessoas não me influenciam
         G
Há um lugar onde eu ouço o Teu espírito
         C9       D                Em
Há um lugar de vitória em meio a guerra
        C9           G
Esse lugar é no Senhor

                    C9
Esse lugar é no Senhor
                    G
Esse lugar é no Senhor
                    C9
Esse lugar é no Senhor
        C9       G
Esse lugar é no Senhor

         C9
Há um lugar onde a inconstância não me domina
         G
Há um lugar onde minha fé é fortalecida
         C9         D    D/F#    Em
Há um lugar onde a paz é quem governa
        C/G          G
Esse lugar é no Senhor

         C9
Há um lugar onde os sonhos não se abortam
         G
Há um lugar onde os medos não te dominam
         C9                   D   D/F#       Em
Há um lugar que quando se perde é que  se ganha

       C/G          G
Esse lugar é no Senhor

                    C9
Esse lugar é no Senhor
                    G
Esse lugar é no Senhor
                    C9
Esse lugar é no Senhor
                    G
Esse lugar é no Senhor
                    G
Esse lugar é no Senhor

[Solo] C9  G

       C9
E|---------------------------------------------------------|
B|-12/15-15-15-15-15-12--10-8---12/15-15-15-15-15-12-------|
G|---------------------------------------------------------|
D|---------------------------------------------------------|
A|---------------------------------------------------------|
E|---------------------------------------------------------|

                 G
E|-----------------------------------------------10--------|
B|---8-10/12-12--10p8-10-8-----8-10-8h10-8--8-10----10b12--|
G|-9-------------------------9-----------------------------|
D|---------------------------------------------------------|
A|---------------------------------------------------------|
E|---------------------------------------------------------|

       C9
E|-----------------------15-14-12--------------------------|
B|-12/15-15-15-15-15-12-----------15--12/15-15-15-15-15-12-|
G|---------------------------------------------------------|
D|---------------------------------------------------------|
A|---------------------------------------------------------|
E|---------------------------------------------------------|

              G
E|---------------------------------------------------------|
B|-8-10----8-10-----8-10-----8-10---12----15\--------------|
G|------7--------7--------7--------------------------------|
D|---------------------------------------------------------|
A|---------------------------------------------------------|
E|---------------------------------------------------------|

    C9
És tudo o que eu preciso, Jesus!
    G
És tudo o que eu preciso, Jesus!
    C9                           G
És tudo o que eu preciso, Jesus!

[Solo] C9  G

[Tab - Solo]

           C9                         G
E|------------------------------------------------------------|
B|-----------8---8~------8h10---------------------------------|
G|-------7/9---9-----7/9-------------7--------------7-7h9p7---|
D|-----------------------------7-7h9----7/9---7/9-9-----------|
A|------------------------------------------------------------|
E|------------------------------------------------------------|

    C9                                G
És tudo o que eu mais preciso, Jesus!
Otros videos de esta canción
    2.083.293 exhibiciones
      • ½ Tono
      • A
      • Bb
      • B
      • C
      • Db
      • D
      • Eb
      • E
      • F
      • F#
      • G
      • Ab
    • Agregar a la lista

    Afinación de cifrado

    Afinador online

      OK