Cifra Club

Dirty Laundry

Don Henley

Bass tab: Principal
Tabbed by: Morrison (*)
Tuning: GDAEB 


-+-=-+-=-+-=-+-=-+-=-+-=-+-=-+-=-+-=-+-=-+-=-+-


 Intro:   *drum beat* 
G|-------|---------------------------------|---------------------------------|
D|-------|---------------------------------|---------------------------------|
A|-r-r-r-|---------------------------------|---------------------------------|
E|-------|---------------------------------|---------------------------------|
B|-------|-6-6-6-6-6-6-6-6-6-6-6-6-6-6-6-6-|-4-4-4-4-4-4-4-4-4-4-4-4-4-4-4-4-|

|-----------------------------|-------------------------|---------|
|-----------------------------|-------------------------|---------|
|-----------------------------|-------------------------|---------|
|-6-6-6-6-6-6-6-6-6-6-6-6-4-4-|-------------------------|---------|
|-----------------------------|-6-6-6-6-6-6-6-6-6-6-6-6-|-1-1-3-3-|

Verse 1:
“I make my living…”
|---------------------------------|---------------------------------|
|---------------------------------|---------------------------------|
|---------------------------------|---------------------------------|
|---------------------------------|---------------------------------|
|-6-6-6-6-6-6-6-6-6-6-6-6-6-6-6-6-|-4-4-4-4-4-4-4-4-4-4-4-4-4-4-4-4-|

|---------------------------------|-------------------------|---------|
|---------------------------------|-------------------------|---------|
|---------------------------------|-------------------------|---------|
|-6-6-6-6-6-6-6-6-6-6-6-6-6-6-4-4-|-------------------------|---------|
|---------------------------------|-6-6-6-6-6-6-6-6-6-6-6-6-|-1-1-3-3-|

“Well, I could’ve…”
|---------------------------------|---------------------------------|
|---------------------------------|---------------------------------|
|---------------------------------|---------------------------------|
|---------------------------------|---------------------------------|
|-6-6-6-6-6-6-6-6-6-6-6-6-6-6-6-6-|-4-4-4-4-4-4-4-4-4-4-4-4-4-4-4-4-|

|---------------------------------|---------------------------------|
|---------------------------------|---------------------------------|
|---------------------------------|---------------------------------|
|-6-6-6-6-6-6-6-6-6-6-6-6-6-6-4-4-|---------------------------------|
|---------------------------------|-6-6-6-6-6-6-6-6-6-6-6-6-6-6-6-6-|

Chorus:
“Kick’em when…”
|---------|---------|---------|---------|---------------------------------|
|---------|---------|---------|---------|---------------------------------|
|---------|---------|---------|---------|---------------------------------|
|-8---8-8-|-6---6-6-|-4---4-4-|---------|---------------------------------|
|---------|---------|---------|-4---4-4-|-6-6-6-6-6-6-6-6-6-6-6-6-6-6-6-6-|

|---------|---------|---------|---------|-------------------------|---------|---|---|---|---|
|---------|---------|---------|---------|-------------------------|---------|---|---|---|---|
|---------|---------|---------|---------|-------------------------|---------|-r-|-r-|-r-|-r-|
|-8---8-8-|-6---6-6-|-4---4-4-|---------|-------------------------|---------|---|---|---|---|
|---------|---------|---------|-4---4-4-|-6-6-6-6-6-6-6-6-6-6-6-6-|-1-1-3-3-|---|---|---|---|

Verse 2:
“We got the…”
|---------------------------------|---------------------------------|
|---------------------------------|---------------------------------|
|---------------------------------|---------------------------------|
|---------------------------------|---------------------------------|
|-6-6-6-6-6-6-6-6-6-6-6-6-6-6-6-6-|-4-4-4-4-4-4-4-4-4-4-4-4-4-4-4-4-|

|---------------------------------|-------------------------|---------|
|---------------------------------|-------------------------|---------|
|---------------------------------|-------------------------|---------|
|-6-6-6-6-6-6-6-6-6-6-6-6-6-6-4-4-|-------------------------|---------|
|---------------------------------|-6-6-6-6-6-6-6-6-6-6-6-6-|-1-1-3-3-|

“Can we film…”
|---------------------------------|---------------------------------|
|---------------------------------|---------------------------------|
|---------------------------------|---------------------------------|
|---------------------------------|---------------------------------|
|-6-6-6-6-6-6-6-6-6-6-6-6-6-6-6-6-|-4-4-4-4-4-4-4-4-4-4-4-4-4-4-4-4-|

|---------------------------------|---------------------------------|
|---------------------------------|---------------------------------|
|---------------------------------|---------------------------------|
|-6-6-6-6-6-6-6-6-6-6-6-6-6-6-4-4-|---------------------------------|
|---------------------------------|-6-6-6-6-6-6-6-6-6-6-6-6-6-6-6-6-|

Solo:
|---------------------------------|---------------------------------|
|---------------------------------|---------------------------------|
|---------------------------------|---------------------------------|
|---------------------------------|---------------------------------|
|-6-6-6-6-6-6-6-6-6-6-6-6-6-6-6-6-|-4-4-4-4-4-4-4-4-4-4-4-4-4-4-4-4-|

|---------------------------------|-------------------------|---------|
|---------------------------------|-------------------------|---------|
|---------------------------------|-------------------------|---------|
|-6-6-6-6-6-6-6-6-6-6-6-6-6-6-4-4-|-------------------------|---------|
|---------------------------------|-6-6-6-6-6-6-6-6-6-6-6-6-|-1-1-3-3-| 2X

Verse 3:
“You don’t really…”
|---------------------------------|---------------------------------|
|---------------------------------|---------------------------------|
|---------------------------------|---------------------------------|
|---------------------------------|---------------------------------|
|-6-6-6-6-6-6-6-6-6-6-6-6-6-6-6-6-|-4-4-4-4-4-4-4-4-4-4-4-4-4-4-4-4-|

|---------------------------------|---------------------------------|
|---------------------------------|---------------------------------|
|---------------------------------|---------------------------------|
|-6-6-6-6-6-6-6-6-6-6-6-6-6-6-4-4-|---------------------------------|
|---------------------------------|-6-6-6-6-6-6-6-6-6-6-6-6-6-6-6-6-|

Chorus:
“Kick’em when…”
|---------|---------|---------|---------|---------------------------------|
|---------|---------|---------|---------|---------------------------------|
|---------|---------|---------|---------|---------------------------------|
|-8---8-8-|-6---6-6-|-4---4-4-|---------|---------------------------------|
|---------|---------|---------|-4---4-4-|-6-6-6-6-6-6-6-6-6-6-6-6-6-6-6-6-|

|---------|---------|---------|---------|---|---|---|---|---|---|---|---|
|---------|---------|---------|---------|---|---|---|---|---|---|---|---|
|---------|---------|---------|---------|-r-|-r-|-r-|-r-|-r-|-r-|-r-|-r-|
|-8---8-8-|-6---6-6-|-4---4-4-|---------|---|---|---|---|---|---|---|---|
|---------|---------|---------|-4---4-4-|---|---|---|---|---|---|---|---|

Verse 2:
“Dirty little secrets…”
|---------------------------------|---------------------------------|
|---------------------------------|---------------------------------|
|---------------------------------|---------------------------------|
|---------------------------------|---------------------------------|
|-8-8-8-8-8-8-8-8-8-8-8-8-8-8-8-8-|-6-6-6-6-6-6-6-6-6-6-6-6-6-6-6-6-|

|---------------------------------|-------------------------|---------|
|---------------------------------|-------------------------|---------|
|---------------------------------|-------------------------|---------|
|-8-8-8-8-8-8-8-8-8-8-8-8-8-8-6-6-|-------------------------|---------|
|---------------------------------|-8-8-8-8-8-8-8-8-8-8-8-8-|-3-3-5-5-|

“We can do the…”
|---------------------------------|---------------------------------|
|---------------------------------|---------------------------------|
|---------------------------------|---------------------------------|
|---------------------------------|---------------------------------|
|-8-8-8-8-8-8-8-8-8-8-8-8-8-8-8-8-|-6-6-6-6-6-6-6-6-6-6-6-6-6-6-6-6-|

|---------------------------------|---------------------------------|
|---------------------------------|---------------------------------|
|---------------------------------|---------------------------------|
|-8-8-8-8-8-8-8-8-8-8-8-8-8-8-6-6-|---------------------------------|
|---------------------------------|-8-8-8-8-8-8-8-8-8-8-8-8-8-8-8-8-|

Solo + outro:
|---------------------------------|---------------------------------|
|---------------------------------|---------------------------------|
|---------------------------------|---------------------------------|
|---------------------------------|---------------------------------|
|-8-8-8-8-8-8-8-8-8-8-8-8-8-8-8-8-|-6-6-6-6-6-6-6-6-6-6-6-6-6-6-6-6-|

|---------------------------------|-------------------------|---------|
|---------------------------------|-------------------------|---------|
|---------------------------------|-------------------------|---------|
|-8-8-8-8-8-8-8-8-8-8-8-8-8-8-6-6-|-------------------------|---------|
|---------------------------------|-8-8-8-8-8-8-8-8-8-8-8-8-|-3-3-5-5-| 3X

|---------------------------------|---------------------------------|
|---------------------------------|---------------------------------|
|---------------------------------|---------------------------------|
|---------------------------------|---------------------------------|
|-8-8-8-8-8-8-8-8-8-8-8-8-8-8-8-8-|-6-6-6-6-6-6-6-6-6-6-6-6-6-6-6-6-|

|---------------------------------|-------------------------|---|---|---|
|---------------------------------|-------------------------|---|---|---|
|---------------------------------|-------------------------|---|---|---|
|-8-8-8-8-8-8-8-8-8-8-8-8-8-8-6-6-|-------------------------|---|---|---|
|---------------------------------|-8-8-8-8-8-8-8-8-8-8-8-8-|-6-|-1-|-8-| 
“END-lick”
(You know, drum beats, guitar thingies…




00:00 / 00:00
Other videos of this song
Repeat
Other videos of this song
Composed by Danny Kortchmar / Don Henley
55 views
00:00 / 00:00
OK