Cifra Club

Acordo

Henrique e Juliano

Cifrado: Principal (guitarra y guitarra eléctrica)
tono: F# (con acordes en la forma de E) Capotraste en 2ª casa
[Intro] E  B  F#m7  A/E

Tab - Solo Intro
                B                        F#m7  A/E
E|------------------------------------------|
B|--4/5-5-5-5---5/7--7p5-4----2/4--4/5------|
G|------------6------------6-----------6----|
D|------------------------------------------|
A|------------------------------------------|
E|------------------------------------------|

[Primeira Parte] 

E                  B                 F#m7
  Se desse pra voltar a uma briga atrás
                  A/E
Eu não faria nada     diferente
E                    B                   F#m7
  A culpa que cê tem   é bem proporcional
                 E/G#  A
Ao tanto que cê mente

[Pré-Refrão] 

C#m7                           B
    Dessa vez tô com sangue no olho
                        F#m7
Não vai ter recaída de novo
                           A/E
Quem vai chorar, quem vai sofrer
                           C#m7
Quem vai rastar vai ser você
              B          
Outra vez eu tô falando 
F#m7                  A
    Mas dessa vez eu vou fazer

[Refrão] 

E                B                    F#m7
  Eu juro nunca mais olho na sua cara
                             A/E               
O problema é que eu beijo de olho fechado 
    E
Oh raiva
                 B                   F#m7
Prometo que sua cama e eu não faz negócio
                             A/E               
Mas seu corpo e o meu sempre entra em acordo 
   E
Oh ódio

               B                F#m7
Eu juro nunca mais olho na sua cara
                             A/E             
O problema é que eu beijo de olho fechado 
    E
Oh raiva
                 B                   F#m7
Prometo que sua cama e eu não faz negócio
                             A/E                
Mas seu corpo e o meu sempre entra em acordo
   E
Oh ódio

[Solo] B  F#m7  A  C#m7

[Parte 1 De 3] 

                B                        F#m7  
E|------------------------------------------|
B|--4/5-5-5-5---5/7--7p5-4----2/4--4/5------|
G|------------6------------6-----------6----|
D|------------------------------------------|
A|------------------------------------------|
E|------------------------------------------|

Parte 2 De 3
                           A
E|------------------------------------------|
B|------------------------------------------|
G|--/9--9--9--9-/8-8-8/6-6-6/4-4-4/1-1-1----|
D|--/11-11-11-11/9-9-9/7-7-7/6-6-6/2-2-2----|
A|------------------------------------------|
E|------------------------------------------|

Parte 3 De 3
         C#m7
E|------------------------------------------|
B|------------------------------------------|
G|--3/4--4/1--------------------------------|
D|------------------------------------------|
A|------------------------------------------|
E|------------------------------------------|

[Pré-Refrão] 

C#m7                           B
    Dessa vez tô com sangue no olho
                        F#m7
Não vai ter recaída de novo
                           A/E
Quem vai chorar, quem vai sofrer
                           C#m7
Quem vai rastar vai ser você
              B          
Outra vez eu tô falando 
F#m7                  A
    Mas dessa vez eu vou fazer

[Refrão] 

E                B                    F#m7
  Eu juro nunca mais olho na sua cara
                             A/E               
O problema é que eu beijo de olho fechado 
    E
Oh raiva
                 B                   F#m7
Prometo que sua cama e eu não faz negócio
                             A/E               
Mas seu corpo e o meu sempre entra em acordo 
   E
Oh ódio

               B                F#m7
Eu juro nunca mais olho na sua cara
                             A/E             
O problema é que eu beijo de olho fechado 
    E
Oh raiva
                 B                   F#m7
Prometo que sua cama e eu não faz negócio
                             A/E                
Mas seu corpo e o meu sempre entra em acordo
   E
Oh ódio

[Solo Final]  B  F#m7  

[Tab - Solo Final]

                B                        F#m7  
E|------------------------------------------|
B|--4/5-5-5-5---5/7--7p5-4----2/4--4/5------|
G|------------6------------6-----------6----|
D|------------------------------------------|
A|------------------------------------------|
E|------------------------------------------|

                             A/E                
Mas seu corpo e o meu sempre entra em acordo
   E
Oh ódio
00:00 / 00:00
Otros videos de esta canción
Repetir
Otros videos de esta canción
Composición de Gustavo Martins / Isabella Resende / Kito / Léo Soares
Colaboración y revisión:
429 exhibiciones
  • Simplificar cifrado
    • ½ Tono
    • A
    • Bb
    • B
    • C
    • Db
    • D
    • Eb
    • E
    • F
    • F#
    • G
    • Ab
  • Agregar a la lista
    00:00 / 00:00
    OK