Cifra Club

Ame o Tanto Que Puder

Henrique e Juliano

Cifrado: Principal (guitarra y guitarra eléctrica)
tono: Gm (con acordes en la forma de F#m) Capotraste en 1ª casa
[Intro] D9  E  F#m  A9
        D9  E  F#m 

E|------------------------------------------|
B|-2/5\2------2/5\2-------------------------|
G|-x-----4\2--------4/6-6--b7r6b7r6---------|
D|-x----------------x-----------------------|
A|------------------------------------------|
E|------------------------------------------|

E|------------------------------------------|
B|-2/5\2------2/5\2-------------------------|
G|-x-----4\2--------4/6-6--4-4-2-1-1h2------|
D|-x-----------------------------------4~---|
A|------------------------------------------|
E|------------------------------------------|

[Primeira Parte]

   A9       E                           
E aí já vestiu seu melhor sorriso
        F#m
Pra sorrir
          D9
Porque a vida é uma graça
        E
Num piscar de olho passa

[Pré-Refrão]

         A9
Hoje eu não vou pedir

Só vou agradecer
           E
O que eu quero pra mim

Eu desejo a você, desejo você
        F#m
Muito amor, muito amor, muito amor

Tenha fé nunca perca a esperança
   D9                          E
E veja o mundo com os olhos de uma criança

[Refrão]

                   D9
A nossa vida é um sopro irmão
                                 E
Ame o tanto que puder, num economiza não
                          F#m
E tudo que fizer faça de coração
    A9                      D9  E
Afinal o mal se paga com o bem

                   D9
A nossa vida é um sopro irmão
                                 E
Ame o tanto que puder, num economiza não
                          F#m
E tudo que fizer faça de coração
    A9                      D9  
Afinal o mal se paga com o bem
      E
Pra Deus não tem
                   F#m                  
Ninguém é melhor que ninguém

[Solo] D9  E  F#m  A9
       D9  E  F#m

E|------------------------------------------|
B|-2/5\2------2/5\2-------------------------|
G|-x-----4\2--------4/6-6--b6r4p2-2---------|
D|-x----------------x-----------------------|
A|------------------------------------------|
E|------------------------------------------|

E|------------------------------------------|
B|-2/5\2------2/5\2-------------------------|
G|-x-----4\2--------4/6-6--4-4-2-1-1h2------|
D|-x-----------------------------------4~---|
A|------------------------------------------|
E|------------------------------------------|

[Pré-Refrão]

         A9
Hoje eu não vou pedir

Só vou agradecer
           E
O que eu quero pra mim

Eu desejo a você, desejo você
        F#m
Muito amor, muito amor, muito amor

Tenha fé nunca perca a esperança
   D9                          E
E veja o mundo com os olhos de uma criança

[Refrão]

                   D9
A nossa vida é um sopro irmão
                                 E
Ame o tanto que puder, num economiza não
                          F#m
E tudo que fizer faça de coração
    A9                      D9  E
Afinal o mal se paga com o bem

                   D9
A nossa vida é um sopro irmão
                                 E
Ame o tanto que puder, num economiza não
                          F#m
E tudo que fizer faça de coração
    A9                      D9  
Afinal o mal se paga com o bem
      E
Pra Deus não tem
                   F#m                  
Ninguém é melhor que ninguém

[Final] D9  E  F#m  A9
        D9  E  F#m
00:00 / 00:00
Otros videos de esta canción
Repetir
Otros videos de esta canción
Composición de Fagner Lopes / Henrique Casttro / Os Parazim
Colaboración y revisión:
  • Thiago Almeida
  • MarcosERaffael
169 exhibiciones
    • ½ Tono
    • Am
    • Bbm
    • Bm
    • Cm
    • C#m
    • Dm
    • Ebm
    • Em
    • Fm
    • F#m
    • Gm
    • G#m
  • Agregar a la lista
    00:00 / 00:00
    OK