Cifra Club

Chá de Casa Nova

Henrique e Juliano

Cifrado: Principal (guitarra y guitarra eléctrica)
tono: Ab (con acordes en la forma de G) Capotraste en 1ª casa
[Intro] Em  D2  C9

[Tab - Solo Intro]

Parte 1 de 4
             P.M.. . .
E|------------------------------------------|
B|-3-3-3/5~---------------------------------|
G|-----------2-4-2-4-2~---------------------|
D|------------------------------------------|
A|------------------------------------------|
E|------------------------------------------|

Parte 2 de 4
             P.M.. . .
E|------------------------------------------|
B|-3-3-3/5~---------------------------------|
G|-----------2-4-2-4-2~---------------------|
D|-5----------------------------------------|
A|------------------------------------------|
E|------------------------------------------|

Parte 3 de 4
             P.M.. . .
E|------------------------------------------|
B|-3-3-3/5~---------------------------------|
G|-----------2-4-2-4-2~---------------------|
D|-4----------------------------------------|
A|------------------------------------------|
E|------------------------------------------|

Parte 4 de 4
             P.M.. . .   . .     .
E|------------------------------------------|
B|-3-3-3/5~---------------------------------|
G|-----------2-4-2-4-2~---------------------|
D|-5---------------------5-5/7~-------------|
A|-------------------------------5/7~-------|
E|------------------------------------------|

[Primeira Parte]

 Em
Hoje eu acordei com uma notícia
               D2
Que era melhor    eu continuar dormindo
        C9
E no lugar do café, abri uma cerveja
              Cm
Pra ver se eu acredito

[Segunda Parte]

       Em
Nessa foto da sala vazia

Vocês dois sorrindo
G
  Uma pilha de presente
D
Ele segurando a chave
                             A
E você com uma plaquinha escrito

Novo cantinho da gente

[Pré-Refrão]

      F
Pra quem não dividia o teto

Antes do casamento
C              Dm7  C9
  Se explica ago___ra
                     G
Fez até chá de casa nova, ai, ai

[Refrão]

          C
Minha vontade é baixar na sua porta

E jogar pra fora a raiva que eu senti
             G
Mas esse sorriso aí eu nunca vi

No fundo, eu tô feliz

Por você tá feliz
          C
Minha vontade era voltar no tempo

Mesmo já sabendo que ia ser assim
                 G
Sou parte da história de final feliz

O amor da sua vida é esse cara aí

            F
E tá doendo aqui
 C                                  G
Mas o amor da sua vida é esse cara aí
            F
E tá doendo aqui
 C                                  Em
Mas o amor da sua vida é esse cara aí

[Solo] D2  C9

[Tab - Solo]

Parte 1 de 3
   P.M.. . .             P.M.. . .
E|------------------------------------------|
B|-------------3-3-3/5~---------------------|
G|-2-4-2-4-2~------------2-4-2-4-2~---------|
D|-------------5----------------------------|
A|------------------------------------------|
E|------------------------------------------|

Parte 2 de 3
             P.M.. . .
E|------------------------------------------|
B|-3-3-3/5~---------------------------------|
G|-----------2-4-2-4-2~---------------------|
D|-4----------------------------------------|
A|------------------------------------------|
E|------------------------------------------|

Parte 3 de 3
             P.M.. . .
E|------------------------------------------|
B|-3-3-3/5~---------------------------------|
G|-----------2-4-2-4-2~---------------------|
D|-5----------------------------------------|
A|------------------------------------------|
E|------------------------------------------|

[Segunda Parte]

 D     Em
Nessa foto da sala vazia

Vocês dois sorrindo
G
  Uma pilha de presente
D
Ele segurando a chave
                             A
E você com uma plaquinha escrito

Novo cantinho da gente

[Pré-Refrão]

      F
Pra quem não dividia o teto

Antes do casamento
C              F/C  C9
  Se explica ago___ra
                     G
Fez até chá de casa nova, ai, ai

[Refrão Final]

          C
Minha vontade é baixar na sua porta

E jogar pra fora a raiva que eu senti
             G
Mas esse sorriso aí eu nunca vi

No fundo, eu tô feliz

Por você tá feliz
          C
Minha vontade era voltar no tempo

Mesmo já sabendo que ia ser assim
                 G
Sou parte da história de final feliz

O amor da sua vida é esse cara aí

            F
E tá doendo aqui
 C                                  G
Mas o amor da sua vida é esse cara aí
            F
E tá doendo aqui
 C                                  G
Mas o amor da sua vida é esse cara aí
00:00 / 00:00
Otros videos de esta canción
Repetir
Otros videos de esta canción
Composición de Edson Garcia / Felipe Marins / Flavinho Kadet / Lucas Souza / Nicolas Damasceno
Colaboración y revisión:
  • Victor Alves
  • MarcosERaffael
  • Rodrigo Ferrareis
98 exhibiciones
    • ½ Tono
    • A
    • Bb
    • B
    • C
    • Db
    • D
    • Eb
    • E
    • F
    • F#
    • G
    • Ab
  • Agregar a la lista
    00:00 / 00:00
    OK