Cifra Club

De Vez Outra Vez

Henrique e Juliano

Cifrado: Principal (guitarra y guitarra eléctrica)
tono: D
[Intro] G  A  Bm

Solo Guitarra
E|----------------------------------------|
B|----------------------------------------|
G|-----7-7h6-7h6-7h6-7/9------------------|
D|-5/7------------------------------------|
A|----------------------------------------|
E|----------------------------------------|

E|----------------------------------------|
B|----------------------------------------|
G|-----7-7h6-7h6-7-6h7p6/4----------------|
D|-5/7------------------------------------|
A|----------------------------------------|
E|----------------------------------------|

Bm
Olha a gente brigando de novo
        D
Por conversa fiada do povo
       Em
Outra vez você não me ouviu
       G                      A
E acreditou no que cê nem viu

       G                 A                 Bm
Outra vez a gente com a mesma conversa de sempre
                         G
Você caiu no papo dessa gente
               A                      Bm
Que só tá esperando ver algum vacilo meu

       G                 A                    Bm
Outra vez eu me explicando mesmo sendo inocente
                         G
Tô duvidando do que você sente
             A                      G     A
Por que você tá duvidando do que é só seu

      G                  A               Bm
Terminamos de vez outra vez pela decima vez

Só que eu sei bem aonde isso vai dar

      G                  A
Terminamos de vez outra vez
                     Bm
E e amor que a gente fez me dá motivos pra acreditar
          G               A                 Bm
Que você vai voltar tô esperando o meu celular tocar
            G               A               Bm
Eu sei que vai voltar tô esperando o meu celular tocar
00:00 / 00:00
Otros videos de esta canción
Repetir
Otros videos de esta canción
Composición de Henrique Tavares / Lucas Vieira
179 exhibiciones
    • ½ Tono
    • A
    • Bb
    • B
    • C
    • Db
    • D
    • Eb
    • E
    • F
    • F#
    • G
    • Ab
  • Agregar a la lista
    00:00 / 00:00
    OK