Cifra Club

Deixa Eu Sofrer

Henrique e Juliano

Cifrado: Principal (guitarra y guitarra eléctrica)
tono: Ebm (con acordes en la forma de Em) Afinación: Eb Ab Db Gb Bb Eb
[Intro] C  Em  D  Em

[Tab - Solo Intro]

Parte 1 de 2  
E|------------------------------------------|
B|------7/8---8/7---------------------------|
G|------------------------------------------|
D|--7/9-----------9--7h9-7------------------|
A|------------------------------------------|
E|------------------------------------------|

Parte 2 de 2   
E|------------------------------------------|
B|------------------------------------------|
G|----------7---7-9--9~---------------------|
D|--7---7h9---9-----------------------------|
A|----9-------------------------------------|
E|------------------------------------------|

[Primeira Parte]

    Em   D  C
Eu sei que  acabou, uoooh
                G  D
Recentemente a gente

        C
Só não beija outra boca

No mesmo ambiente
       Em
Solta mão do fulano

Se passar na minha frente
               G
Senão vou dar piti

E aí cê vai ver
                   D
Respeita minha saudade
                  
Que eu respeito você

[Refrão]

 C    Em     D      Em
Deixa eu sofrer em paz
                  C
Não me faz beber mais
                  D
Que eu não te procuro mais
         Em     D      Em
Só deixa eu sofrer em paz

 C    Em     D      Em
Deixa eu sofrer em paz
                  C
Não me faz beber mais
                  D
Que eu não te procuro mais
         Em     D      Em
Só deixa eu sofrer em paz

[Solo] C  Em  D  Em

Parte 1 de 2  
E|------------------------------------------|
B|----7/8---8/7-----------------------------|
G|------------------------------------------|
D|--9-----------9--7h9--9/7-----------------|
A|------------------------------------------|
E|------------------------------------------|

Parte 2 de 2   
E|------------------------------------------|
B|------------------------------------------|
G|--5/7---7p4-------------------------------|
D|------------------------------------------|
A|------------------------------------------|
E|------------------------------------------|

[Primeira Parte]

        C
Só não beija outra boca

No mesmo ambiente
 D     Em
Solta mão do fulano

Se passar na minha frente
               G
Senão vou dar piti

E aí cê vai ver
                   D
Respeita minha saudade
                  
Que eu respeito você

[Refrão]

 C    Em     D      Em
Deixa eu sofrer em paz
                  C
Não me faz beber mais
                  D
Que eu não te procuro mais
         Em     D      Em
Só deixa eu sofrer em paz

 C    Em     D      Em
Deixa eu sofrer em paz
                  C
Não me faz beber mais
                  D
Que eu não te procuro mais
         Em     D      Em
Só deixa eu sofrer em paz

[Final] C  Em  D  Em

[Tab - Solo Final]

Parte 1 de 2  
E|------------------------------------------|
B|----7/8---8/7-----------------------------|
G|------------------------------------------|
D|--7-----------9--7h9-7--------------------|
A|------------------------------------------|
E|------------------------------------------|

Parte 2 de 2   
E|------------------------------------------|
B|------------------------------------------|
G|----------7---7-9--9~/--------------------|
D|--7---7h8---9-----------------------------|
A|----9-------------------------------------|
E|------------------------------------------|
00:00 / 00:00
Otros videos de esta canción
Repetir
Otros videos de esta canción
Composición de Felipe (K&F) / Kaique (K&F) / Nudoze
Colaboración y revisión:
  • Gustavo Zanandrez
  • JOSE LIMA
11 exhibiciones
    • ½ Tono
    • Am
    • Bbm
    • Bm
    • Cm
    • C#m
    • Dm
    • Ebm
    • Em
    • Fm
    • F#m
    • Gm
    • G#m
  • Agregar a la lista
    00:00 / 00:00
    OK