Cifra Club

Desgastou

Henrique e Juliano

Cifrado: Principal (guitarra y guitarra eléctrica)
tono: Bm
[Intro] Bm  D  F#m  E

[Tab - Intro]

Parte 1 de 2
E|------------------------------------------|
B|------------5h7--7p5------5h7--7p5--------|
G|-2/4-6-6/7~-6h7--7p6--7~--6h7--7p6--6~----|
D|----------------------7~------------7~----|
A|-4/5-7-7/9~-------------------------------|
E|------------------------------------------|

Parte 2 de 2 
E|------------------------------------------|
B|-0h2-0h2p0--------------------------------|
G|-1---1------------------------------------|
D|------------------------------------------|
A|------------------------------------------|
E|------------------------------------------|

[Primeira Parte] 

    Bm
De novo não
                         D
Tá parecendo disco arranhado
                         F#m
Na sua boca já ficou travado

Eu vou mudar, eu vou mudar
     E
Mas nunca mudou

[Pré-Refrão] 

          D
A gente briga no supermercado

No estacionamento
F#m
    Na escolha do cardápio
           E/G#  A
No filme que tá vendo
                   
Vou resumir nós dois 
             E
Em uma só palavra

[Refrão] 

       Bm
Desgastou
                         A/C#  D
A gente transa, mas não faz  amor
                        A
A cama treme num ritmo lento
                      E
É muita cena e pouco sentimento

       Bm
Desgastou
                              D
A gente transa, mas não faz amor
                        A
A cama treme num ritmo lento
                      E
É muita cena e pouco sentimento

                               Bm   
Dois perdidos num quarto em silêncio

[Solo] D  F#m  E

[Tab - Solo]

Parte 1 de 2
E|------------------------------------------|
B|-5h7-7p5----5h7-7p5-----0-2-0h2p0---------|
G|-6h7-7p6----6h7-7p6-----1-1-1-------------|
D|---------7----------6---------------------|
A|---------7----------7---------------------|
E|------------------------------------------|

Parte 2 de 2
E|------------------------------------------|
B|---------5--3-----------------------------|
G|-2/4--6--6--4-----------------------------|
D|-4/6--7-----------------------------------|
A|------------------------------------------|
E|------------------------------------------|

[Pré-Refrão] 

          D
A gente briga no supermercado

No estacionamento
F#m
    Na escolha do cardápio
           E/G#  A
No filme que tá vendo
                   
Vou resumir nós dois 
             E
Em uma só palavra

[Refrão] 

       Bm
Desgastou
                              D
A gente transa, mas não faz amor
                        A
A cama treme num ritmo lento
                      E
É muita cena e pouco sentimento

       Bm
Desgastou
                              D
A gente transa, mas não faz amor
                        A
A cama treme num ritmo lento
                      E
É muita cena e pouco sentimento

                               Bm   
Dois perdidos num quarto em silêncio
D        F#m  E
  Desgastou
                               Bm   
Dois perdidos num quarto em silêncio

[Final] D  F#m

[Tab - Final]

E|------------------------------------------|
B|-5h7-7p5----5h7-7p5-------0-2-2p0---------|
G|---------7~---------4h6~------------------|
D|------------------------------------------|
A|------------------------------------------|
E|------------------------------------------|

E|------------------------------------------|
B|-5h7-7p5----------------------------------|
G|---------7~--2--2/6~----------------------|
D|------------------------------------------|
A|------------------------------------------|
E|------------------------------------------|
00:00 / 00:00
Otros videos de esta canción
Repetir
Otros videos de esta canción
Composición de Daniel Condido / Eliabe Galdino / Haniel dos Santos
Colaboración y revisión:
  • Lucas Kappaun
  • Supreminn n
31 exhibiciones
  • Simplificar cifrado
    • ½ Tono
    • Am
    • Bbm
    • Bm
    • Cm
    • C#m
    • Dm
    • Ebm
    • Em
    • Fm
    • F#m
    • Gm
    • G#m
  • Agregar a la lista
    00:00 / 00:00
    OK