Cifra Club

Eu e a Saudade

Henrique e Juliano

Tablatura: Principal (guitarra)
Tono: Bb (con acordes en la forma de A) Capo en 1ª casa
[Intro] A  

A
Eu to montando uma dupla
                    E
Pra estourar no Brasil
                                        Bm
Pela minha experiência é sucesso de verdade
           D
Eu e a saudade

[Segunda Parte]

A 
 Pra completar a emoção
                  E
Tem uma participação
                                       Bm
Que é mais que especial, chega aí solidão
                               D 
Pra você ter ideia da repercussão
               E
Primeiro vídeo no YouTube já bateu um milhão

[Refrão]

A                       E
 Se a minha vida fosse palco
                Bm
Só ia tocar sofrência
                        D
No começo do show é saudade
                        A
E no final do show é carência 
                     E
A entrada é sempre grátis
                     Bm
Mas quem sai da prejuízo
              D
Eu ia morrer bebo
                   A
Se eu fosse viver disso

                        E
 Se a minha vida fosse palco
                Bm
Só ia tocar sofrência
                        D
No começo do show é saudade
                        A
E no final do show é carência 
                     E
A entrada é sempre grátis
                     Bm
Mas quem sai da prejuízo
              D
Eu ia morrer bebo
                   A
Se eu fosse viver disso

[Solo] A  E  Bm  D

    A          E          Bm           
E|-------7/9---------7/9------------------------------|
B|-----5-----------5------10---10---10----------------|
G|---6-----------4-----------9----7----6/4/2----------|
D|-7-----------6--------------------------------------|
A|----------------------------------------------------|
E|----------------------------------------------------|

       D
E|----------------------------------------------------|
B|----10---10---10------------------------------------|
G|-------9----7----6/4/2------------------------------|
D|----------------------------------------------------|
A|----------------------------------------------------|
E|----------------------------------------------------|
 
   A           E          Bm  
E|-------7/9---------7/12-9---------------------------|
B|-----5-----------5---------10---10------------------|
G|---6-----------4--------------9----7--7/6/4/6-------|
D|-7-----------6--------------------------------------|
A|----------------------------------------------------|
E|----------------------------------------------------|

       D
E|----------------------------------------------------|
B|----10---10---10------------------------------------|
G|-------9----7----6/4/2------------------------------|
D|----------------------------------------------------|
A|----------------------------------------------------|
E|----------------------------------------------------|

[Segunda Parte]

A 
 Pra completar a emoção
                  E
Tem uma participação
                                       Bm
Que é mais que especial, chega aí solidão
                               D 
Pra você ter ideia da repercussão
               E
Primeiro vídeo no YouTube já bateu um milhão

[Refrão]

A                       E
 Se a minha vida fosse palco
                Bm
Só ia tocar sofrência
                        D
No começo do show é saudade
                        A
E no final do show é carência 
                     E
A entrada é sempre grátis
                     Bm
Mas quem sai da prejuízo
              D
Eu ia morrer bebo
                   A
Se eu fosse viver disso

                        E
 Se a minha vida fosse palco
                Bm
Só ia tocar sofrência
                        D
No começo do show é saudade
                        A
E no final do show é carência 
                     E
A entrada é sempre grátis
                     Bm
Mas quem sai da prejuízo
              D
Eu ia morrer bebo
                   A
Se eu fosse viver disso

( A  E  Bm )

E|----------------------------------------------------|
B|----------------------------------------------------|
G|-9---------9-------6-----9---------9-----------6-7--|
D|---7-7-7-7---7-7-9---7-----7-7-7-7---7/6-7---7------|
A|-------------------------------------------9--------|
E|----------------------------------------------------|

                        D
No começo do show é saudade
                        A
E no final do show é carência 
                     E
A entrada é sempre grátis
                     Bm
Mas quem sai da prejuízo
              D
Eu ia morrer bebo
                   A
Se eu fosse viver disso
reproducciones 3
Acordes para:
    Compositor: Gustavo Martins / Vine Show Colaboración y revision:
    • Getúlio Vasconcelos

    0 comentarios

    mostrar más comentarios

    ¿Conseguiste tocar?

    0 tocaron 2 aún no

    ¡Graba un vídeo tocando Eu e a Saudade y envianoslo!

    00:00 / 00:00
    outros vídeos desta música
    repetir qualidade Automático
    Outros vídeos desta música
    00:00 / 00:00
    Automático
    OK