Cifra Club

Evento Cancelado

Henrique e Juliano

Chords: Principal (acoustic and electric guitars)
tone: Dm (chord shape for key of Bm) Capo on fret 3
[Intro] Bm  A2  G9

[Tab - Solo Intro]

E|------------------------------------------|
B|-------------2h3-2------------------------|
G|----2-2h4~---------4-2h4-2----------------|
D|-/4------------------------\4-0-----------|
A|------------------------------------------|
E|------------------------------------------|

E|------------------------------------------|
B|------------------------------------------|
G|------------------------------------------|
D|-----4-5-4h5p4----------------------------|
A|-5-7-----------7~--------0-2--------------|
E|----------------------/2------------------|

[Primeira Parte]

Bm                 A2
   Se eu quietasse a boca
Em9                G9   
    Evitava esse choro
       A2      Bm              A2
Esse cheiro de álcool na roupa
Em9                G9  
    E a fumaça na sala
      A2        Bm  
E um cinzeiro cheio
A2              G9
   De arrependimento

[Pré-Refrão]

A2                       
   Eu perdi minha chance
                 Em9
Quando me entreguei

Pra outro alguém
A2                     
   Se não for com você
         Em9
Não vai ser com ninguém

[Refrão]

       Bm
Dói saber
  A2                 
Que os nossos filhos
 G  
Nem vão nascer
       Bm
Dói saber
     A2               
Que não vai ter festa
        G  
E nem briga pelo seu buquê

       Bm
Dói saber
  A2                 
Que os nossos filhos
 G  
Nem vão nascer
       Bm
Dói saber
     A2               
Que não vai ter festa
        G  
E nem briga pelo seu buquê

             Bm                A2
Evento cancelado, vestido diferente
            Em9                  G    A2
Curto e vermelho pra seguir em frente
  Bm  A2          G
E eu, eu sigo solteiro pra sempre

[Solo] Bm  A2  G
       Bm  A2  G

[Tab - Solo]

E|------------------------------------------|
B|-------------2h3-2------------------------|
G|----2-2h4~---------4-2h4-2----------------|
D|-/4------------------------\4-0-----------|
A|------------------------------------------|
E|------------------------------------------|

E|-------------------------------------12b14|
B|-------------------------------10-12------|
G|---7---9/11b12r11-9~--7---9/11------------|
D|/9---9------------------9-----------------|
A|------------------------------------------|
E|------------------------------------------|

E|-------7-9--------------------------------|
B|-10b12-----10b12-b12~---------------------|
G|------------------------------------------|
D|------------------------------------------|
A|------------------------------------------|
E|------------------------------------------|

E|-10p9-------------------------12----------|
B|------10-------------------10-------------|
G|---------9\7\6b7r6---6-7/9----------------|
D|-------------------7----------------------|
A|------------------------------------------|
E|------------------------------------------|

[Pré-Refrão]

A2                       
   Eu perdi minha chance
                 Em9
Quando me entreguei

Pra outro alguém
A2                     
   Se não for com você
         Em9
Não vai ser com ninguém

[Refrão]

       Bm
Dói saber
  A2                 
Que os nossos filhos
 G  
Nem vão nascer
       Bm
Dói saber
     A2               
Que não vai ter festa
        G  
E nem briga pelo seu buquê

       Bm
Dói saber
  A2                 
Que os nossos filhos
 G  
Nem vão nascer
       Bm
Dói saber
     A2               
Que não vai ter festa
        G  
E nem briga pelo seu buquê

             Bm                A2
Evento cancelado, vestido diferente
            Em9                  G    A2
Curto e vermelho pra seguir em frente
  Bm  A2          G               Bm
E eu, eu sigo solteiro pra sempre
00:00 / 00:00
Other videos of this song
Repeat
Other videos of this song
197 views
  • Simplify chords
    • ½ Tone
    • Am
    • Bbm
    • Bm
    • Cm
    • C#m
    • Dm
    • Ebm
    • Em
    • Fm
    • F#m
    • Gm
    • G#m
  • Add to list

Afinação da cifra

Afinador online

    00:00 / 00:00
    OK