Cifra Club

Aprenda

Flor e o Beija-flor (part. Marília Mendonça)

Henrique e Juliano

Tablatura: Viola (guitarra)
tono: C
[Intro] C9  G  Dm  F

           C
E|-----------------------------------------------------------------|
B|-------5----8--6--5--5/6--5--------8-----------------------------|
G|-----4----------------------4--4/6-----6--4--3--3/4--3--------6--|
E|---3--------------------------------------------------3--3/5-----|
B|-1---------------------------------------------------------------|

E|-1--1/3--3--3/5--5---8---8---5-----------------------------------|
B|-3--3/5--5--5/6--6--10--10---6-----------------------------------|
G|-----------------------------------------------------------------|
E|-----------------------------------------------------------------|
B|-----------------------------------------------------------------|

C9                          G                      Am
Essa é uma velha história de uma de uma flor e um beija-flor
                G/B  C9
Que conheceram o amor
         G             Am
Em uma noite fria de outono!

                     Dm
E as folhas caídas no chão
                       Am
Na estação que não tem cor
                    F                                G
E a flor conhece o beija-flor e ele lhe apresenta o amor

                        Dm
E diz que o frio é uma fase ruim
                               F
Que ela era a flor mais linda do jardim
               Dm
E a única que suportou
                   G                    G7
Merece conhecer o amor e todo o seu calor!

C9                     G
Ahh que saudade de um beija-flor
                      Dm
Que me beijou depois voou
           F                    C9
Pra longe demais, pra longe de nós!

                G
Saudade de um beija-flor
                         Dm
Lembranças de um antigo amor
                 F
O dia amanheceu tão lindo
G                     C9
Eu durmo e acordo sorrindo!

( C9  G  Dm  F )

           C
E|-----------------------------------------------------------------|
B|-------5----8--6--5--5/6--5--------8-----------------------------|
G|-----4----------------------4--4/6-----6--4--3--3/4--3--------6--|
E|---3--------------------------------------------------3--3/5-----|
B|-1---------------------------------------------------------------|

E|-1--1/3--3--3/5--5---8---8---5-----------------------------------|
B|-3--3/5--5--5/6--6--10--10---6-----------------------------------|
G|-----------------------------------------------------------------|
E|-----------------------------------------------------------------|
B|-----------------------------------------------------------------|

C9                          G                      Am
Essa é uma velha história de uma de uma flor e um beija-flor
                G/B  C9
Que conheceram o amor
         G             Am
Em uma noite fria de outono!

                     Dm
E as folhas caídas no chão
                       Am
Na estação que não tem cor
                    F                                G
E a flor conhece o beija-flor e ele lhe apresenta o amor

                        Dm
E diz que o frio é uma fase ruim
                               F
Que ela era a flor mais linda do jardim
               Dm
E a única que suportou
                   G                    G7
Merece conhecer o amor e todo o seu calor!

C9                     G
Ahh que saudade de um beija-flor
                      Dm
Que me beijou depois voou
           F                    C9
Pra longe demais, pra longe de nós!

                G
Saudade de um beija-flor
                         Dm
Lembranças de um antigo amor
                 F
O dia amanheceu tão lindo
G                     C9
Eu durmo e acordo sorrindo!

C9                     G
Ahh que saudade de um beija-flor
                      Dm
Que me beijou depois voou
           F                    C9
Pra longe demais, pra longe de nós!

                G
Saudade de um beija-flor
                         Dm
Lembranças de um antigo amor
                 F
O dia amanheceu tão lindo
G                     C9
Eu durmo e acordo sorrindo!

[Final] C9  G  Dm  F

           C
E|-----------------------------------------------------------------|
B|-------5----8--6--5--5/6--5--------8-----------------------------|
G|-----4----------------------4--4/6-----6--4--3--3/4--3--------6--|
E|---3--------------------------------------------------3--3/5-----|
B|-1---------------------------------------------------------------|

E|-1--1/3--3--3/5--5---8---8---5-----------------------------------|
B|-3--3/5--5--5/6--6--10--10---6-----------------------------------|
G|-----------------------------------------------------------------|
E|-----------------------------------------------------------------|
B|-----------------------------------------------------------------|
Composição de Juliano Tchula / Marília Mendonça
Colaboración y revision:
  • Getúlio Vasconcelos
  • pepele258
  • Gabriel Barbosa
220 reproducciones
  • Simplificar cifra
    • ½ Tono
    • A
    • Bb
    • B
    • C
    • Db
    • D
    • Eb
    • E
    • F
    • F#
    • G
    • Ab
  • Adicionar à lista

    0 comentarios

    Ver todos os comentários
    00:00 / 00:00
    outros vídeos desta música
    repetir qualidade Automático
    Outros vídeos desta música
    00:00 / 00:00
    Automático
    Capítulos
    • Tocando a música
    • Dicas Iniciais / Equipamentos
    • Acordes da música
    • Ritmo da música
    • Encerramento
    • Ficha Técnica
    OK