Cifra Club

Ligação Covarde

Henrique e Juliano

Cifrado: Principal (guitarra y guitarra eléctrica)
tono: Db (con acordes en la forma de C) Capotraste en 1ª casa
[Intro] F7M  C  Am7  G

E|------------------------------------------|
B|-1h3-1h3--5h6-5--1h3-1h3--5h6-5-----------|
G|------------------------------------------|
D|------------------------------------------|
A|------------------------------------------|
E|------------------------------------------|

E|------------------------------------------|
B|-1h3-1h3--5h6-5-3~------------------------|
G|------------------------------------------|
D|------------------------------------------|
A|------------------------------------------|
E|------------------------------------------|

[Primeira Parte]

       F7M
Cê não acha que ta um pouco tarde
       C
Pra fazer essa ligação covarde
            F7M
Tô sabendo sim
                
Da sua grande novidade
       C
Vai casar! É amanhã né?
                     G/B
Tô feliz de verdade!

[Pré-Refrão]

     Am7                     Em
Mas pera aí, ta ligando pra mim por quê?
      F7M                           C    G/B
Entendi, quer fazer o amor da despedida
Am7                         Em   
Olha, eu não era tão bom assim em português
               F7M           
Mas o ponto final eu usei "direitin"
          G                   
Quando tirei você da minha vida

[Refrão]

                  F7M
A tua sorte é que eu
                            C
Não conheço com quem vai casar
                         Am7
Mas conhecendo bem seu amor
                          G
Tô coçando pra não ir contar
                       F7M
Tudo que você tá me falando
                             C
Pra mostrar quem cê é de verdade
                          Am7
Dessa vez não me falta coragem
                          G
Já passei por cima da saudade

F7M               C
Acho que é bom você desligar
 Am7           G               F7M  C  Am  G
Vai que amanhã eu apareço por lá

E|------------------------------------------|
B|-1h3-1h3--5h6-5--1h3-1h3--5h6-5-----------|
G|------------------------------------------|
D|------------------------------------------|
A|------------------------------------------|
E|------------------------------------------|

E|------------------------------------------|
B|-1h3-1h3--5h6-5-3~------------------------|
G|------------------------------------------|
D|------------------------------------------|
A|------------------------------------------|
E|------------------------------------------|

[Solo] F7M  C  G/B

E|----------------10b12--8-8----------------|
B|-----------5h8----------------------------|
G|-------5h7--------------------------------|
D|-5-5h7------------------------------------|
A|----------------------------3~-2~-0-------|
E|------------------------------------------|

[Pré-Refrão]

     Am7                     Em
Mas pera aí, ta ligando pra mim por quê?
      F7M                           C    G/B
Entendi, quer fazer o amor da despedida
Am7                         Em   
Olha, eu não era tão bom assim em português
               F7M           
Mas o ponto final eu usei "direitin"
          G                   
Quando tirei você da minha vida

[Refrão]

                  F7M
A tua sorte é que eu
                            C
Não conheço com quem vai casar
                         Am7
Mas conhecendo bem seu amor
                          G
Tô coçando pra não ir contar
                       F7M
Tudo que você tá me falando
                             C
Pra mostrar quem cê é de verdade
                          Am7
Dessa vez não me falta coragem
                          G
Já passei por cima da saudade

F7M               C
Acho que é bom você desligar
 Am7           G               F7M  C  Am  G  F7M
Vai que amanhã eu apareço por lá

E|------------------------------------------|
B|-1h3-1h3--5h6-5--1h3-1h3--5h6-5-----------|
G|------------------------------------------|
D|------------------------------------------|
A|------------------------------------------|
E|------------------------------------------|

E|------------------------------------------|
B|-1h3-1h3--5h6-5-3~------------------------|
G|------------------------------------------|
D|------------------------------------------|
A|------------------------------------------|
E|------------------------------------------|
00:00 / 00:00
Otros videos de esta canción
Repetir
Otros videos de esta canción
Composición de Théo Andrade / Michel Alves
Colaboración y revisión:
  • Thiago Almeida
  • MarcosERaffael
169 exhibiciones
    • ½ Tono
    • A
    • Bb
    • B
    • C
    • Db
    • D
    • Eb
    • E
    • F
    • F#
    • G
    • Ab
  • Agregar a la lista
    00:00 / 00:00
    OK