Cifra Club

Minha Cópia Atual

Henrique e Juliano

Cifrado: Principal (guitarra y guitarra eléctrica)
tono: F (con acordes en la forma de E) Capotraste en 1ª casa
[Intro] A2  E

[Primeira Parte] 

   A2
E por acaso eu frequento 
                E  
O mesmo bar que ele
   A2                 
E por acaso eu notei 
                E
Algumas coisas nele

[Pré-Refrão] 

                     F#m7
Vi que ele deixou a barba 

E começou usar boné
                   C#m7
Só sai de camisa preta

Anda de chinelo no pé
                    F#m7
E a corrente no pescoço 

É igualzinha a que me deu
                        C#m7
Pra mim tá mais que na cara 

Mas ele não percebeu
                        A
Tá parecendo alguém que eu conheço bem
B2           E
   Quem? Eu!

[Refrão] 

             A2
Essa necessidade de encontrar

Um outro eu
               C#m7         
É prova de saudade 

Que cê nunca me esqueceu
                       F#m7     
Vai beijando de olho aberto 

A minha cópia atual
                   A2
Porque se fechar o olho 
                    B2
Vai pensar no original

             A2
Essa necessidade de encontrar

Um outro eu
               C#m7         
É prova de saudade 

Que cê nunca me esqueceu
                       F#m7     
Vai beijando de olho aberto 

A minha cópia atual
                   A2
Porque se fechar o olho 
                    B2
Vai pensar no original

     A2           E
Que por acaso sou eu

[Solo] A2  C#m7

E|------------------------------------------|
B|------------------------------------------|
G|-/9-9-9-9-11~--9~--8----8-9-8-9~----------|
D|---------------------11-------------------|
A|------------------------------------------|
E|------------------------------------------|

E|------------------------------------------|
B|---------------12b14~---------------------|
G|-/9-9-9-9-11-9----------------------------|
D|------------------------------------------|
A|------------------------------------------|
E|------------------------------------------|

E|-9----------------------------------------|
B|---12p9-----------------------------------|
G|--------11b13r11p9----9-11b13r11b13~------|
D|-------------------11---------------------|
A|------------------------------------------|
E|------------------------------------------|

[Pré-Refrão] 

                     F#m7
Vi que ele deixou a barba 

E começou usar boné
                   C#m7
Só sai de camisa preta

Anda de chinelo no pé
                    F#m7
E a corrente no pescoço 

É igualzinha a que me deu
                        C#m7
Pra mim tá mais que na cara 

Mas ele não percebeu
                        A
Tá parecendo alguém que eu conheço bem
B2           E
   Quem? Eu!

[Refrão] 

             A2
Essa necessidade de encontrar

Um outro eu
               C#m7         
É prova de saudade 

Que cê nunca me esqueceu
                       F#m7     
Vai beijando de olho aberto 

A minha cópia atual
                   A2
Porque se fechar o olho 
                    B2
Vai pensar no original

             A2
Essa necessidade de encontrar

Um outro eu
               C#m7         
É prova de saudade 

Que cê nunca me esqueceu
                       F#m7     
Vai beijando de olho aberto 

A minha cópia atual
                   A2
Porque se fechar o olho 
                    B2
Vai pensar no original

     A2           E
Que por acaso sou eu
00:00 / 00:00
Otros videos de esta canción
Repetir
Otros videos de esta canción
Composición de Diego Silveira / Edson Garcia / Felipe Marins / Junior Peppato / Nicolas Damasceno
Colaboración y revisión:
  • Lucas Kappaun
  • Pedro Ruiz
  • Leonardo Negrine
17 exhibiciones
  • Simplificar cifrado
    • ½ Tono
    • A
    • Bb
    • B
    • C
    • Db
    • D
    • Eb
    • E
    • F
    • F#
    • G
    • Ab
  • Agregar a la lista
    00:00 / 00:00
    OK