Cifra Club

Rasteira

Henrique e Juliano

Cifrado: Versão 3 (guitarra y guitarra eléctrica)
tono: Bb (con acordes en la forma de A) Capotraste en 1ª casa
[Intro] D9  E/G#  F#m7  E  D9  E/G#  F#m7  E 
 
[Tab - Solo Intro]

Parte 1 De 2

E|----------------------------------------------------------------|
B|----------------------9/10-10-10-10-9-9-9-7-7-7-5-5-5~----------|
G|----------------------------------------------------------------|
D|----2h4-2/4~-2h4p2---10/11-11-11-11-9-9-9-7-7-7-6-6-6~----------|
A|--0----------------4~-------------------------------------------|
E|----------------------------------------------------------------|

Parte 2 De 2

E|----------------------------------------------------------------|
B|----------------------9/10-10-10-10-9-9-9-7-7-7-5~--------------|
G|----------------------------------------------------------------|
D|----2h4-2/4~-2h4p2---10/11-11-11-11-9-9-9-7-7-7-6~--------------|
A|--0----------------4~-------------------------------------------|
E|----------------------------------------------------------------|

[Primeira Parte]

  D5
Normal, quando tocam no seu nome
      F#m7
Eu mudo de assunto
                                  A9
Respondo ignorante não! A gente não tá junto
  E                                D5
Evito de andar em lugares que andei com você

[Segunda Parte]

                 A9
Mas é só desbloquear o meu celular
           E
Que vem noticia
               F#m7
A gente ta parecendo
                    D9
Fim de namoro de artista

[Pré-Refrão]

E/G# F#m7      
    Toda hora vem um chato me
   E
Enchendo de por que
             D9
Por que que acabou, por que não
                   E
Volta? Por quê, por quê?

[Refrão]

        D         A9     
Eu não sei responder
            E/G#
Eu só fico puto porque o povo acha

Que eu nasci grudado em você

       D       A9
Eles  só sabem vê
                  E
As pinga que eu tomo e os tombo que

Eu levo ninguém quer saber

                    D      E/G#  F#m7
Os tombo ninguém nunca vê  
                   E
E a rasteira quem deu foi você
                     D     E/G#  F#m7
Os tombo ninguém nunca vê 
                    E
E a rasteira quem deu foi você

( D  E/G#  F#m7  E )

[Tab - Solo]

Parte 1 De 1

E|----------------------------------------------------------------|
B|----------------------9/10-10-10-10-9-9-9-7-7-7-5~--------------|
G|----------------------------------------------------------------|
D|----2h4-2/4~-2h4p2---10/11-11-11-11-9-9-9-7-7-7-6~--------------|
A|--0----------------4~-------------------------------------------|
E|----------------------------------------------------------------|

[Segunda Parte]

               A9
Mas é só desbloquear o meu celular
           E
Que vem noticia
               F#m7
A gente ta parecendo
                    D9
Fim de namoro de artista

[Pré-Refrão]

E/G# F#m7      
     Toda hora vem um chato me
   E
Enchendo de por que
             D9
Por que que acabou, por que não
                   E
Volta? Por quê, por quê?

[Refrão]

        D         A9     
Eu não sei responder
            E/G#
Eu só fico puto porque o povo acha

Que eu nasci grudado em você

       D       A9
Eles  só sabem vê
                  E
As pinga que eu tomo e os tombo que

Eu levo ninguém quer saber

        D         A9     
Eu não sei responder
            E/G#
Eu só fico puto porque o povo acha

Que eu nasci grudado em você

       D       A9
Eles  só sabem vê
                  E
As pinga que eu tomo e os tombo que

Eu levo ninguém quer saber

                    D      E/G#  F#m7
Os tombo ninguém nunca vê  
                   E
E a rasteira quem deu foi você
                     D    E/G#  F#m7
Os tombo ninguém nunca vê 
                    E
E a rasteira quem deu foi você

[Final] D9  E/G#  F#m7 

[Tab - Solo Final]

Parte 1 De 1

E|----------------------------------------------------------------|
B|----------------------------------------------------------------|
G|----------------------------------------------------------------|
D|----2h4-2/4~-2h4p2----------------------------------------------|
A|--0----------------4~-------------------------------------------|
E|----------------------------------------------------------------|
00:00 / 00:00
Otros videos de esta canción
Repetir
Otros videos de esta canción
Composición de Felipe Kef / Lari Ferreira / Christyan Ribeiro / Henrique Tavares / Nudoze
Colaboración y revisión:
  • LC Passos
2 exhibiciones
    • ½ Tono
    • A
    • Bb
    • B
    • C
    • Db
    • D
    • Eb
    • E
    • F
    • F#
    • G
    • Ab
  • Agregar a la lista
    00:00 / 00:00
    OK