Cifra Club

Recaídas

Henrique e Juliano

Tablatura: Principal
reproducciones 2.841
Tono: G
Solo Intro:

E|----------------------------------------------------|
B|-6/8--7-8~------------------------------------------|
G|-----------------5----------------------------------|
D|---------------5---7/9~-----------------------------|
A|-----------5h7--------------------------------------|
E|----------------------------------------------------|


Base Intro: G

Primeira Parte:
      G
Você pode, ficar com quem você quiser
                Em7
Não tem nada a ver
                   C9
Eu não mando em você
             Am
Mais ainda choro
                                     D
E quando alguém comenta não quero saber
        G
Me preocupo
                                         Em7
E apesar dos pesares eu sempre quero te ver bem
         C9
E ainda vou além
          Am
Em uma relação sei que não vai ser fácil
               D
Amar outro alguém


Segunda Parte:

   G
E hoje, mesmo separados sinto
                       D
que seu corpo ainda é meu

As vezes me escondo
                              Am
E faço de tudo pra ninguém notar que eu
        C9
Vivo e morro por ti
     Am                                D
Tem semanas que as vezes sofro vem as recaídas

    G
As vezes eu queria ter o poder
                         D
De poder te apagar da memória

E nessa fraqueza ter força pra fazer
              Am                  C9
Com que essa nossa história, não passe
              D                  G    D
De passado e fique da porta pra fora

Refrão:

         G                        D
Se eu pudesse te apagar da minha mente
           Am   C9
Apagaria agora
          G                           D
Mas toda vez que eu me lembro de nós dois
                 Am      C9
Meu coração sempre chora
                 G        D     Am     C9
E é sempre a mesma história   aaa  aaa


Base do Solo: G  Em7  C9  Am  D


Solo:

E|----------------------------------------------------|
B|-6/8--7-8~---12-12-12-10-10-10-8-8-8-7-7-7-8-8~-----|
G|----------------------------------------------------|
D|----------------------------------------------------|
A|----------------------------------------------------|
E|----------------------------------------------------|

E|----------------------------------------------------|
B|-12-12-12-10-10-10-8-8-8-7-7-7-8--------------------|
G|---------------------------------7/9~---------------|
D|----------------------------------------------------|
A|----------------------------------------------------|
E|----------------------------------------------------|

E|----------------------------------------------------|
B|----------------------------------------------------|
G|-17-17-17-16-16-16----------------------------------|
D|-------------------19-19-19-17-17-17-19-19----------|
A|----------------------------------------------------|
E|----------------------------------------------------|


Repete a Segunda Parte:

   G
E hoje, mesmo separados sinto
                       D
que seu corpo ainda é meu

As vezes me escondo
                              Am
E faço de tudo pra ninguém notar que eu
        C9
Vivo e morro por ti
     Am                                D
Tem semanas que as vezes sofro vem as recaídas

    G
As vezes eu queria ter o poder
                         D
De poder te apagar da memória

E nessa fraqueza ter força pra fazer
              Am                  C9
Com que essa nossa história, não passe
              D                  G    D
De passado e fique da porta pra fora


Repete o Refrão:

         G                        D
Se eu pudesse te apagar da minha mente
           Am   C9
Apagaria agora
          G                           D
Mas toda vez que eu me lembro de nós dois
                 Am      C9
Meu coração sempre chora
                 G        D     Am     C9  G
E é sempre a mesma história   aaa  aaa

0 comentarios

    mostrar más comentarios

    ¿Conseguiste tocar?

    203tocaron3aún no

    ¡Graba un vídeo tocando Recaídas y envianoslo!

    00:00 / 00:00
    outros vídeos desta música
    repetirqualidadeautomática
    Outro vídeos desta música
      00:00 / 00:00
      automática
      Capítulos
      • Tocando a música
      • Dicas iniciais / Equipamentos
      • Acordes da música
      • Ensinando ritmo da música
      • Ensinando Introdução (Solo)
      • Ensinando Solo
      • Tocando Solo (Tab)
      • Ensinando Solo Final
      • Encerramento
      • Ficha técnica / Erros de gravação
      OK