Cifra Club

Separa, Namora

Henrique e Juliano

Tablatura: Principal
reproducciones 422
Tono: G# (con acordes en la forma de G) Capo en 1ª casa
G                    Em
Nossas brigas duram menos que cinco minutos
C                      Am
Basta um toque seu pra me acalmar
   D
Em um segundo eu esqueço de tudo
        G
Nossos erros tão pequenos
Em
Fortalecem nossos sentimentos
C                   Am
Nossos medos, desencontros
      D
Não se comparam ao nosso amor absoluto
  Em
Não tem nada que supere o amor da gente
  C
Não há nada que nos faça indiferente
  Am
E não há nada que resista
       C               D
A esse amor que a gente sente
                       G
Se precisar a gente briga, chora
D
Volta mais uma vez
Am               C
Separa, namora e casa outra vez
    G                         D
Se precisar a gente briga, chora
             Am
Volta mais uma vez
           C
Separa, namora
                   G
Se precisar a gente briga, chora
    D
Volta mais uma vez
  Am                 C
Separa, namora e casa outra vez
G                            D
Se precisar a gente briga, chora
               Am
Volta mais uma vez
             C                 G
Separa, namora e casa outra vez

Solo:
E|----------------------------------|
B|-6-6-6---6-6-6---6-6-4-4---2/4~---|
G|-------------------------5--------|
D|----------------------------------|
A|----------------------------------|
E|----------------------------------|

E|----------------------------------|
B|--4---4---4--4-6-4---4--4-6-4-4/6-|
G|----5---5----------5--------------|
D|----------------------------------|
A|----------------------------------|
E|----------------------------------|

E|----------------------------------|
B|----------------------------------|
G|-6-5-3-1--------------------------|
D|----------------------------------|
A|----------------------------------|
E|----------------------------------|
Acordes para:

    0 comentarios

      mostrar más comentarios

      ¿Conseguiste tocar?

      17tocaron2aún no

      ¡Graba un vídeo tocando Separa, Namora y envianoslo!

      00:00 / 00:00
      outros vídeos desta música
      repetirqualidadeautomática
      Outro vídeos desta música
        00:00 / 00:00
        automática
        OK