Cifra Club

Seu Perfil

Henrique e Juliano

Chords: Principal (acoustic and electric guitars)
tone: Em
[Intro] Em  D  C

[Tab - Solo Intro]

E|-----------------------------3/5-3~-------|
B|--------8/10-10p8~---/8-7~---5/7-5~-------|
G|-/7-7-7-----------------------------------|
D|---------------------/9-7~----------------|
A|------------------------------------------|
E|------------------------------------------|

E|------------------------------------------|
B|-5p3---3-3h5~---3-------------------------|
G|-----4------------2h4-2-------------------|
D|------------------------5-2~--------------|
A|------------------------------------------|
E|------------------------------------------|

[Primeira Parte] 

Em                          D
   É melhor eu parar por aqui
                             C
Daqui a pouco é caminho sem volta

Você sabe prender 

Uma boca sem usar algemas
            Em
Sem usar gaiola

                       D 
Tô aqui inteiro pra você e você
                    C
E você comigo só metade

Tem hora pra ir embora
                 
Mas só volta 
    Em     
Só Deus sabe

[Pré-Refrão] 

             D                C  
Eu não me encaixo bem na sua vida
                   Cm
Mas bem que eu queria

[Refrão] 

                Em
É que o seu perfil de querer
                  D
Uma noite e mais nada
                            C
Não combina com minha vida calma

Você fica comigo um dia e o resto

                     Em
É balada, balada, balada
                       D
Você gosta de ser enganada e na vida
              C
Eu faltei nessa aula

                       Em
Desculpa não ser esse cara
                            D
De querer uma noite e mais nada
                            C
Não combina com minha vida calma

Você fica comigo um dia e o resto

                     Em
É balada, balada, balada
                       D
Você gosta de ser enganada e na vida
              C
Eu faltei nessa aula

                       Em
Desculpa não ser esse cara

( D  C )

                       Em
Desculpa não ser esse cara

( D  C )

                       Em
Desculpa não ser esse cara

[Solo] D  C 

[Tab - Solo]

E|----------3/5-3~--------------------------|
B|--/8-7~---5/7-5~--5p3-/8-7-7h8------------|
G|------------------------------------------|
D|--/9-7~---------------/9-7-7h9------------|
A|------------------------------------------|
E|------------------------------------------|

E|-8/10-10\8-7------------------------------|
B|-------------10-8-10/12~------------------|
G|------------------------------------------|
D|------------------------------------------|
A|------------------------------------------|
E|------------------------------------------|

[Primeira Parte] 

Em                        D 
   Tô aqui inteiro pra você e você
                    C
E você comigo só metade

Tem hora pra ir embora
                 
Mas só volta 
    Em     
Só Deus sabe

[Pré-Refrão] 

             D                C  
Eu não me encaixo bem na sua vida
                   Cm
Mas bem que eu queria

[Refrão] 

                Em
É que o seu perfil de querer
                  D
Uma noite e mais nada
                            C
Não combina com minha vida calma

Você fica comigo um dia e o resto

                     Em
É balada, balada, balada
                       D
Você gosta de ser enganada e na vida
              C
Eu faltei nessa aula

                       Em
Desculpa não ser esse cara
                            D
De querer uma noite e mais nada
                            C
Não combina com minha vida calma

Você fica comigo um dia e o resto

                     Em
É balada, balada, balada
                       D
Você gosta de ser enganada e na vida
              C
Eu faltei nessa aula

                       Em
Desculpa não ser esse cara

( D  C )

                       Em
Desculpa não ser esse cara

( D  C )

                       G
Desculpa não ser esse cara
00:00 / 00:00
Other videos of this song
Repeat
Other videos of this song
572 views
  • Simplify chords
    • ½ Tone
    • Am
    • Bbm
    • Bm
    • Cm
    • C#m
    • Dm
    • Ebm
    • Em
    • Fm
    • F#m
    • Gm
    • G#m
  • Add to list

Afinação da cifra

Afinador online

    00:00 / 00:00
    OK