Cifra Club

Volta Por Baixo

Henrique e Juliano

Cifrado: Completa (guitarra y guitarra eléctrica)
tono: B (con acordes en la forma de Bb) Capotraste en 1ª casa
[Intro] A9  E  Bm7  D

(Tab - Solo Inicial)

      A9           E                              Bm7
E|----0---0h2-0---------------------------------------------------|
B|--2---2-------2--0h2-0--2-2h3p2-2h3p2-2h3p2---------------------|
G|--------------------------------------------4p2---2-2~----------|
D|------------------------------------------------4---------------|
A|----------------------------------------------------------------|
E|----------------------------------------------------------------|
                            D
E|----------------------------------------------------------------|
B|--2-2h3p2-2h3p2-2h3p2------------------2h3~--3-2h3p2------------|
G|----------------------4p2---2-2~-----2---------------4-2--------|
D|--------------------------4-------4----------------------4~-----|
A|----------------------------------------------------------------|
E|----------------------------------------------------------------|

[Primeira Parte]

Bm
Parece que você não tá beijando
                D5
Como queria beijar

Não tá aproveitando
                  A9
Como achou que iria aproveitar
                  E
Porque tá me pedindo pra voltar

E aí, compensou me largar?

[Pré-Refrão]

Bm
Cadê suas amizades?
              D5
Os seus esqueminhas?
                              A9
Que você falava e falava que tinha
                        E
É isso que cê chama de volta por cima?

[Refrão]

    A9                E
Cê deu foi volta por baixo, amor
                              Bm7
Cadê o melhor que eu que você arrumou?
                               D9
Cadê o melhor que eu que você arrumou?
  E
Rodou, não achou

    A9                E
Cê deu foi volta por baixo, amor
                              Bm
Cadê o melhor que eu que você arrumou?
                              D9
Cadê o melhor que eu que você arrumou?
   E         E9    A9
Rodou, não achou, voltou

( A9  E   Bm7  D )

Tab: Solo - Interlúdio

     A9           E                              Bm7
E|----0---0h2-0---------------------------------------------------|
B|--2---2-------2--0h2-0--2-2h3p2-2h3p2-2h3p2---------------------|
G|--------------------------------------------4p2---2-2~----------|
D|------------------------------------------------4---------------|
A|----------------------------------------------------------------|
E|----------------------------------------------------------------|
                            D
E|----------------------------------------------------------------|
B|--2-2h3p2-2h3p2-2h3p2------------------2h3-----3p2--------------|
G|----------------------4p2---2-2~-----2-----4~------4p2----------|
D|--------------------------4-------4---------------------4~------|
A|----------------------------------------------------------------|
E|----------------------------------------------------------------|

[Pré-Refrão]

Bm
Cadê suas amizades?
              D5
Os seus esqueminhas?
                             A9
Que você falava e falava que tinha
                          E
É isso que cê chama de volta por cima?

[Refrão]

    A9                E               
Cê deu foi volta por baixo, amor
                              Bm
Cadê o melhor que eu que você arrumou?
                              D9
Cadê o melhor que eu que você arrumou?
  E
Rodou, não achou

    A9                E
Cê deu foi volta por baixo, amor
                              Bm
Cadê o melhor que eu que você arrumou?
                              D9
Cadê o melhor que eu que você arrumou?
   E         E9    A9
Rodou, não achou, voltou

( E )

    A9                E
Cê deu foi volta por baixo, amor
                              Bm
Cadê o melhor que eu que você arrumou?
                              D9
Cadê o melhor que eu que você arrumou?
   E
Rodou, não achou

    A9                E
Cê deu foi volta por baixo, amor
                              Bm
Cadê o melhor que eu que você arrumou?
                              D9
Cadê o melhor que eu que você arrumou?
   E         E9    A9
Rodou, não achou, voltou
00:00 / 00:00
Otros videos de esta canción
Repetir
Otros videos de esta canción
Composición de De Angelo / Gabriel Agra / Thales Lessa
Colaboración y revisión:
  • LC Passos
  • Paulovictorneymar
30 exhibiciones
  • Simplificar cifrado
    • ½ Tono
    • A
    • Bb
    • B
    • C
    • Db
    • D
    • Eb
    • E
    • F
    • F#
    • G
    • Ab
  • Agregar a la lista
    00:00 / 00:00
    OK