Cifra Club

Tesoro

Héroes Del Silencio

Cifrado: Principal (guitarra y guitarra eléctrica)
tono: E
E||------------------|-------------------------|--------------------------|
B||------------------|-------------------6-----|--------5-----------------|
G||------------------|--7----5---5h7-----------|--5-----------5-----------|
D||------------------|----------------7-----7--|-----5-----5-----5--5--7--|
A||------------------|-------------------------|--------------------------|
E||------------------|-------------------------|--------------------------|



E|----------------------|---------------------------|--------------------------|
B|-------6--------------|----------5h6h-5--5--------|--------------------5-----|
G|------------7----7----|--5-----5------------5-----|--7-----5-----7-----------|
D|--8-------------------|-----5------------------5--|-----7-----7-----7-----7--|
A|----------------------|---------------------------|--------------------------|
E|----------------------|---------------------------|--------------------------|

E|--------------------------|----------------------|---------------------------|
B|--6-----5-----6-----5-----|-------6----5---------|----------5h6h-5--5--------|
G|--------------------------|--7--------------7----|--5-----5------------5-----|
D|-----5-----5-----5-----5--|----------------------|-----5------------------5--|
A|--------------------------|----------------------|---------------------------|
E|--------------------------|----------------------|---------------------------|

E|-------5--------------|-------5----4---------|-------5--------------|
B|------------8----7----|-----------------7----|------------8----7----|
G|--7-------------------|--6-------------------|--4-------------------|
D|----------------------|----------------------|----------------------|
A|----------------------|----------------------|----------------------|
E|----------------------|----------------------|----------------------|

E|-----------5-------------|-------5--------------|-------10----9----5----|
B|--------5-------8--7--5--|------------8----7----|-----------------------|
G|-----6-------------------|--7-------------------|--6--------------------|
D|--7----------------------|----------------------|-----------------------|
A|-------------------------|----------------------|-----------------------|
E|-------------------------|----------------------|-----------------------|

E|-------5----7----5----|-----17--15--14------------------|-------------------|
B|----------------------|-----------------17--15--14------|-------------------|
G|--4-------------------|-----------------------------16--|-------------------|
D|----------------------|---------------------------------|--0----------------|
A|----------------------|--0------------------------------|--0----------------|
E|----------------------|---------------------------------|-------------------|

E|-------------------|-------------------|-------------------|
B|-------------------|-------------------|-------------------|
G|-------------------|-------------------|-------------------|
D|-------------------|-------------------|-------------------|
A|--3----------------|--1----------------|--3----------------|
E|--3----------------|--1----------------|--3----------------|

E|-------------------------|--------------------------|----------------------|
B|-------------------6-----|--------5-----------------|-------6--------------|
G|--7----5---5h7-----------|--5-----------5-----------|------------7----7----|
D|----------------7-----7--|-----5-----5-----5--5--7--|--8-------------------|
A|-------------------------|--------------------------|----------------------|
E|-------------------------|--------------------------|----------------------|

E|---------------------------|-------------------|-------------------|
B|----------5h6h-5--5--------|-------------------|-------------------|
G|--5-----5------------5-----|-------------------|-------------------|
D|-----5------------------5--|--0----------------|-------------------|
A|---------------------------|--0----------------|--3----------------|
E|---------------------------|-------------------|--3----------------|

E|-------------------|-------------------|--------------------------|
B|-------------------|-------------------|--------------------5-----|
G|-------------------|-------------------|--7-----5-----7-----------|
D|-------------------|-------------------|-----7-----7-----7-----7--|
A|--1----------------|--3----------------|--------------------------|
E|--1----------------|--3----------------|--------------------------|

E|--------------------------|----------------------|---------------------------|
B|--6-----5-----6-----5-----|-------6----5---------|----------5h6h-5--5--------|
G|--------------------------|--7--------------7----|--5-----5------------5-----|
D|-----5-----5-----5-----5--|----------------------|-----5------------------5--|
A|--------------------------|----------------------|---------------------------|
E|--------------------------|----------------------|---------------------------|

E|-------5--------------|-------5----4---------|-------5--------------|
B|------------8----7----|-----------------7----|------------8----7----|
G|--7-------------------|--6-------------------|--4-------------------|
D|----------------------|----------------------|----------------------|
A|----------------------|----------------------|----------------------|
E|----------------------|----------------------|----------------------|

E|-----------5-------------|-------5--------------|-------9----10----9----|
B|--------5-------8--7--5--|------------8----7----|-----------------------|
G|-----6-------------------|--7-------------------|--6--------------------|
D|--7----------------------|----------------------|-----------------------|
A|-------------------------|----------------------|-----------------------|
E|-------------------------|----------------------|-----------------------|

E|-------5----7----5----|-----17--15--14------------------|-------5--------------|
B|----------------------|-----------------17--15--14------|------------8----7----|
G|--4-------------------|-----------------------------16--|--7-------------------|
D|----------------------|---------------------------------|----------------------|
A|----------------------|--0------------------------------|----------------------|
E|----------------------|---------------------------------|----------------------|

E|-------5----4---------|-------5--------------|-----------5-------------|
B|-----------------7----|------------8----7----|--------5-------8--7--5--|
G|--6-------------------|--4-------------------|-----6-------------------|
D|----------------------|----------------------|--7----------------------|
A|----------------------|----------------------|-------------------------|
E|----------------------|----------------------|-------------------------|

E|-------5--------------|-------10----9----5----|-------5----7----5----|
B|------------8----7----|-----------------------|----------------------|
G|--7-------------------|--6--------------------|--4-------------------|
D|----------------------|-----------------------|----------------------|
A|----------------------|-----------------------|----------------------|
E|----------------------|-----------------------|----------------------|

E|-----17--15--14------------------|--1----------------|------------------|
B|-----------------17--15--14------|--3----------------|------------------|
G|-----------------------------16--|--2----------------|------------------|
D|---------------------------------|--0----------------|------------------|
A|--0------------------------------|--0----------------|------------------|
E|---------------------------------|-------------------|------------------|

E|--------------------------|------------------|--5----------------| |
B|--------------------------|------------------|--6----------------| |
G|--------------------------|------------------|--7----------------| |
D|--------------------------|------------------|--7----------------| |
A|--------------------------|------------------|--5----------------| |
E|--12/-13----5/-6----0/-1--|------------------|--5----------------| |
00:00 / 00:00
Otros videos de esta canción
Repetir
Otros videos de esta canción
Composición de Héroes del Silencio
184 exhibiciones
    • ½ Tono
    • A
    • Bb
    • B
    • C
    • Db
    • D
    • Eb
    • E
    • F
    • F#
    • G
    • Ab
  • Agregar a la lista
    00:00 / 00:00
    OK