Cifra Club

Con Todo

Hillsong United

Cifrado: Versão 2 (guitarra y guitarra eléctrica)
tono: B
    B        F#        G#m        E
E|--2--| e|--2--|  e|--4--|  e|--9--|
B|--4--| B|--2--|  B|--4--|  B|--9--|
G|--4--| G|--3--|  G|--4--|  G|--9--|
D|--4--| D|--4--|  D|--6--|  D|--9--|
A|--2--| A|--4--|  A|--6--|  A|--7--|
E|-----| E|--2--|  E|--4--|  E|-----|

INTRO
Guitarra I
   B                               F#
E|------------------------------------------------------------|
B|-------4---4--------4---4-------4---4-------2---2-----------|
G|-----4---4--------4---4-------4---4-------3---3-------------|
D|---4------------4-----------4-----------4-------------------|
A|-2------------2-----------2---------------------------------|
E|--------------------------------------2---------------------|

  G#m                              E
E|------------------------------------------------------------|
B|-------4---4-------4---4-------4---4--------7---7-----------|
G|-----4---4-------4---4-------4---4--------9---9-------------|
D|---6-----------6-----------6------------9-------------------|
A|--------------------------------------7---------------------|
E|-4-----------4-----------4----------------------------------|


Guitarra II
empieza haciendo esto
con la plumilla o pick como lo quieran llamar
en sentido repetitivo los puntos es para indicarles
y no poner tantos números
Como al minuto 00:16

   B    F#  G#m  E    B   F#  G#m  E   B    F#   G#m   E
E|-11| …--12…--11…--------11…----12…----11…-----------|
B|------------------------------------------------------------|
G|------------------------------------------------------------|



VERSO I

Guitarra I va siguiendo el mismo arpegio
Guitarra II va haciendo lo siguiente:

   B              F#             G#m
   Déjanos ver lo que entristece tu corazón
e|-7……------------9……-------------7……-------------------------|

   E            B                   F#       G#m     E
   La iglesia que deseas tener   Refleja tu Luz
e|-9……------------7……-------------9……-------11……------12……----|

Verso II

   B                F#          G#m
   Rompe Señor   Orgullo y muros en mi interior
e|-7……--------------9……-----------7……-------------------------|

   E              B                 F#        G#m          E
   Mis sueños y coronas te doy   Me rindo a tus pies
e|-9……------------11……-------------9……--------11……-------------|




PD-C ORO

Guitarra II hace lo siguiente y la otra sigue los acordes
Con 5tas u 8tavas
      G#m        E        B        F#
   Tu luz        da           esperanza en la
E|---------------------------------------------------------|
B|--------4---------4---------4--------2-------------------|
G|---------4---------4---------4--------3------------------|
D|-------6---------2---------4--------4--------------------|
A|------------------------2--------------------------------|
E|-----4---------0-----------------2-----------------------|

      G#m       E        B          F#
      Oscuridad           que todos puedan ver
E|---------------------------------------------------------|
B|--------4---------4---------4----------2-----------------|
G|---------4---------4---------4-----------3---------------|
D|-------6---------2---------4----------4------------------|
A|------------------------2--------------------------------|
E|-----4---------0-------------------2---------------------|


E     G#m   F#
Cristo Mi Dios
      C#m    E         F# (E)
Grande y digno de alabar



VERSO III

Guitarra I con acordes
Guitarra II con lo siguiente:
    B          F#        G#        E
E|------| e|-----|  e|-----|  e|-----|
B|--12--| B|--7--|  B|--9--|  B|--5--|
G|--11--| G|--6--|  G|--8--|  G|--4--|
D|--9---| D|--4--|  D|--6--|  D|--2--|
A|------| A|-----|  A|-----|  A|-----|
E|------| E|-----|  E|-----|  E|-----|

B
Eterno Dios
F#      G#m
Glorioso en todo eres Señor
     E       B
La majestad, la gracia y poder
     F#        G#m     E
En la luz de tu ser




PD-C ORO

Volviendo otra vez
Guitarra I con acordes
Guitarra II va haciendo esto:
      G#m          E            B          F#
   Tu luz          da                 esperanza en la
E|---------------------------------------------------------|
B|-----11-12-11-9--11-12-11-----11-12-11-9--11-12-11-------|
G|--------------------------11-----------------------9-----|

      G#m          E           B           F#
      Oscuridad                 que todos puedan ver
E|---------------------------------------------------------|
B|----11-12-11-9--11-12-11-----11-12-11-9--11-12-11--------|
G|-------------------------11-----------------------9------|

E     G#m   F#
Cristo Mi Dios
      C#m    E         F# (E)
Grande y digno de alabar


Un interludio

E   G#m   B   F#
E   G#m   B   F#

Guitarra II va tocando de fondo con volumen bajo
Y después va aumentando la intensidad

         E             G#m
   Con todo Dios, con todo Dios
e|------11-11-11-11-11| ……------------------------|
         B            F#
   Cantare    de Tu Gloria
e|-------9| ……---7……----6……-----------------------|

      E             G#m
Con todo Dios, con todo Dios
e|------7| ……---------9……-------------------------|
          B         F#
   Mi alabanza dare
e|-------| …9…--------------------------------|

¡je je je! bueno tampoco hay que ser tan perfectos pueden
improvisarle un solo o como quieran en el momento de adoración


    E          G#m
Mi Corazón te adora Dios
      B            F#
Por siempre te exaltare
    E           G#m
A ti mi Rey con todo Dios
      B         F#
Mi alabanza dare

Y bueno, Eso es todo amigos disfrutenlo
y que la pasen super bendecidos por Dios
Saludos desde la iglesia "CASA DEL D Y" en Barranquilla
¡los bendigo!
00:00 / 00:00
Otros videos de esta canción
Repetir
Otros videos de esta canción
Composición de Joel Houston
2.040 exhibiciones
    • ½ Tono
    • A
    • Bb
    • B
    • C
    • Db
    • D
    • Eb
    • E
    • F
    • F#
    • G
    • Ab
  • Agregar a la lista
    00:00 / 00:00
    OK