Cifra Club

Desde Mi Interior

Hillsong United

Cifrado: Versão 6 (guitarra y guitarra eléctrica)
tono: C
Intro: F, C, G (Acompañamiento)

Arpegio

E|--------------------12-------12----------------]|
B|----------13-------------13----13--15--12------]| (x4)
G|--12-h14-----h12-14---12-------------------12--]|

    F                 C         G
Mil veces te falle, mas tu fuiste fiel
            F             C         G
Tu gracia me levanto, me basta tu amor

Arpegio 2(Opcional solo para arreglo)

    Am         F       C       G
B|-------5---------6-------5-------3--]|
G|---------5-----5---5------5-------4-]|
D|----7--------3---------5-------5----]| (x2)
A|--7------------------3-------5------]|

       Am      F               C      G
Dios eterno tu luz por siempre brillara
        Am        F       C     G
Y tu gloria incomparable sin final

E|--------------------12-------12----------------]|
B|----------13-------------13----13--15--12------]| (x2)
G|--12-h14-----h12-14---12-------------------12--]|

          F           C     G
Señor tu voluntad permanecera,
       F                  C      G
En ti me quiero perder en adoracion

    Am         F       C       G
B|-------5---------6-------5-------3--]|
G|---------5-----5---5------5-------4-]| (x2)
D|----7--------3---------5-------5----]|
A|--7------------------3-------5------]|

       Am      F               C      G
Dios eterno tu luz por siempre brillara
        Am        F       C     G
Y tu gloria incomparable sin final

F           C
 De mi corazon te doy el control
Am             G             F
 Consume todo mi interior, Dios
              C               G
 Justicia y amor me abrazan señor
               Dm
 Te amo desde mi interior

E|--------------------12-------12----------------]|
B|----------13-------------13----13--15--12------]| (x2)
G|--12-h14-----h12-14---12-------------------12--]|


          F           C     G
Señor tu voluntad permanecera,
       F                  C      G
En ti me quiero perder en adoracion


    Am         F       C       G
B|-------5---------6-------5-------3--]|
G|---------5-----5---5------5-------4-]| (x2)
D|----7--------3---------5-------5----]|
A|--7------------------3-------5------]|

       Am      F               C      G
Dios eterno tu luz por siempre brillara
        Am        F       C     G
Y tu gloria incomparable sin final

F           C
 De mi corazon te doy el control
Am             G             F
 Consume todo mi interior, Dios
              C               G
 Justicia y amor me abrazan señor
               Dm
 Te amo desde mi interior

Con Distorción

       Am      F               C      G
Dios eterno tu luz por siempre brillara
        Am        F       C     G
Y tu gloria incomparable sin final

       C         F         G      Am
El clamor de mi ser es contigo estar
       F       G          F     G
Desde mi interior mi alma clamara... Dios

E|--8-8-8-8-8-8-8-8-7-7-7-7-7-7-7-7-12-12-12-12-12-12-12-12-13-13-13-13-12-12-|
B|--8-8-8-8-8-8-8-8-8-8-8-8-8-8-8-8-13-13-13-13-13-13-13-13-13-13-13-13-13-13-|
Acomoden al tiempo del bajo que si sale bastante bien...

B|--13-12-------12----13-12-------12-------10---s8---s8-8p-p6-5-5----|
G|--------14-14----12-------14-14----12t-9----s7---s5----------7-7-5-|
                                                        (muy rapido)

E|--8-7-s12-12-12-12-12-12-12-12-|
B|--8-8-s13-13-13-13-13-13-13-13-| (x2)

E|---------17----17---17----17----17-------19-|
B|--13-s15----15----15----15----15---15s17----|


F           C
 De mi corazon te doy el control
Am             G             F
 Consume todo mi interior, Dios
              C               G
 Justicia y amor me abrazan señor

               Dm
 Te amo desde mi interior

       Am      F               C      G
//Dios eterno tu luz por siempre brillara
        Am        F       C     G
Y tu gloria incomparable sin final

       C         F         G      Am
El clamor de mi ser es contigo estar
       F       G          F     G
Desde mi interior mi alma clamara...//

       F       G          F     G
Desde mi interior mi alma clamara...


E|----------10--10-]|
B|--8--6------8----](x6)| hasta el fin...
G|--------9--------]|


Bueno pos es lo mejorcito q pude hacer
esta alabanza es super chevere y de mucha
utilidad para usarse en ministraciones
suerte con practicarla bendiciones.

DavPatArev en Youtube

Eliel Band
Grupo de Alabanza
Iglesia Cristiana Evangélica
Filadelfia del Dios Viviente
00:00 / 00:00
Otros videos de esta canción
Repetir
Otros videos de esta canción
Compositor no encontrado.
7 exhibiciones
    • ½ Tono
    • A
    • Bb
    • B
    • C
    • Db
    • D
    • Eb
    • E
    • F
    • F#
    • G
    • Ab
  • Agregar a la lista
    00:00 / 00:00
    OK