Cifra Club

Desde Mi Interior

Hillsong United

Cifrado: Versão 4 (guitarra y guitarra eléctrica)
tono: Am

    F                    C           G
E|------------------12----------12------------------]|
B|----------13--------------13------13--15--12------]| (x4)
G|--12--14------14------12----------------------12--]|

    F                 C         G
Mil veces te falle, mas tu fuiste fiel
            F             G         G
Tu gracia me levanto, me basta tu amor
       Am      F               C      G
Dios eterno tu luz por siempre brillara
        Am        F       C     G
Y tu gloria incomparable sin final

E|------------------12----------12------------------]|
B|----------13--------------13------13--15--12------]| (x2)
G|--12--14------14------12----------------------12--]|

          F           C     G
Señor tu voluntad permanecera,
       F                  C      G
En ti me quiero perder en adoracion
       Am      F               C      G
Dios eterno tu luz por siempre brillara
        Am        F       C     G
Y tu gloria incomparable sin final

F           C
 De mi corazon te doy el control
Am             G             F
 Consume todo mi interior, Dios
              C               G
 Justicia y amor me abrazan señor
               Dm           F
 Te amo desde mi interior

E|------------------12----------12------------------]|
B|----------13--------------13------13--15--12------]| (x2)
G|--12--14------14------12----------------------12--]|

     Señor tu voluntad...................



         Am      F               C      G
//Dios eterno tu luz por siempre brillara
        Am        F       C     G
Y tu gloria incomparable sin final
       C         F         G      Am
El clamor de mi ser es contigo estar
       F       G          F     G
Desde mi interior mi alma clamara// Dios
    F
E|-------------------------------------------------------|
B|----13-13-13-13-13-13-13-13-13-13-13-13-13-13-13-13----|
G|---14-14-14-14-14-14-14-14-12-12-12-12-14-14-14-14-----|
  se sigue bien el teimpo ya sea de bajo o acustica
    C
E|--12-12-12-12-12-12-12-12-13-13-13-13-12-12-12-12----|
B|-13-13-13-13-13-13-13-13-13-13-13-13-13-13-13-13-----|
G|-----------------------------------------------------|
    Am                                               G
E|-------------------------------------------------------------|
B|--13--12--10--12--8---13--12--10--8----9---------------------|
G|-------------------------------------8---8--6--6/8---6-6/10--|
D|---------------------------------------------------8---------|
    F
E|--------------12-12-12-12-12-12-12-12-----|
B|-------------13-13-13-13-13-13-13-13------|
G|--13--12--10------------------------------|
    C
E|--------------12-12-12-12-12-12-12-12-----|
B|-------------13-13-13-13-13-13-13-13------|
G|--13--12--10------------------------------|
      G                                               Dm
E|----17-17-----17-17-----17-17-----17-17-----17-17-----19-19-19|
B|--15-----15-15-----15-15-----15-15-----15-15-----15-17--------|
 F         C                  Am
De mi corazon te doy el control..............

justicia y amor

B|-13-13-13-13-13-13-13-13-13-13-13-13-13-13-13-13---|
G|--14-14-14-14-14-14-14-14-12-12-12-12-14-14-14-14----|

E|--12-12-12-12-12-12-12-12-13-13-13-13-12-12-12-12----|
B|-13-13-13-13-13-13-13-13-13-13-13-13-13-13-13-13-----|
G|-----------------------------------------------------|
       Am
coro( dios eterno tu luz por siempre brillara(x2)

B|--13--12--10--13--12--10--13--12--10--10/12--8--6---]|

Esta cancion le es de mucha bendicion en mi iglecia..
pidanle person a jesus
y ke el sea tu guia para la vida enterna...
un saludo a los muchachos de la alabanza
(oly,maleny,marcos,katie,joan,y jorge ke viene en camino)
le mando un saludo al pastor victor arturo y juanny los kiero mucho
ke dios los bendiga ((3xt4an0 m4m4) ) si tienen alguna pregunta
escribanme noriega_12cedblo@hot....
00:00 / 00:00
Otros videos de esta canción
Repetir
Otros videos de esta canción
Compositor no encontrado.
11 exhibiciones
    • ½ Tono
    • Am
    • Bbm
    • Bm
    • Cm
    • C#m
    • Dm
    • Ebm
    • Em
    • Fm
    • F#m
    • Gm
    • G#m
  • Agregar a la lista
    00:00 / 00:00
    OK