Cifra Club

What the world will never take

Hillsong United

Cifrado: Principal (guitarra y guitarra eléctrica)
tono: A
(intro)

E|--------------------------------------------------------------- (acompanha até o pré-refrão,
B|---------------------------------------------------------------  onde comessa o segundo solo)
G|---------------------------------------------------------------
D|-----7-6-6-6-7-------7-6-6-6-7-------7-6-6-6-7-------7-6-6-6-7-
A|---------------------------------5-5-------------5-5-----------
E|-5-5-------------5-5-------------------------------------------

A
With all I'm holding inside
                        D
With all my hopes and desires
And all the dreams that I've dreamt

A
With all I'm hoping to be
                            D
And all that the world will bring
                       Dmaj9
And all that fails to compare

(acompanha o pré-refrão)

E|-----------------
B|-----------------
G|-----------------
D|---6-6-5-6-5-6-5-
A|-----------------
E|-----------------

(pré-refrão)
    F#m          E5     Dmaj9
You say You want all of me
           A          B5
I wouldn't have it any other way

(refrão)
A
I've got a Saviour and He's living in me
D            F#m  Bsus               D
WHOA! I wanna know  I wanna know You today
A
And You're the best thing that has happened to me
        F#m
And the world will never take
    Bsus             D         A
The world will never take You away

(solo base) F#m  F#m(maj7) D  E
E|-----5----5--5---5-7-8-7-5---------------------------------
B|-7-7--7-7--7--6-6------------------------------------------
G|----------------------------------6---6---6-----8----8---8-
D|------------------------------7-7--7-7--7----9-9--9-9--9---

(repete refrão)

(final)
A               D        A
No one could ever take You away!
                D        A
No one could ever take You away!
00:00 / 00:00
Otros videos de esta canción
Repetir
Otros videos de esta canción
Composición de Matt Crocker / Scott Ligertwood
368 vistas
    • ½ Tono
    • A
    • Bb
    • B
    • C
    • Db
    • D
    • Eb
    • E
    • F
    • F#
    • G
    • Ab
  • Agregar a la lista

    0 comentarios

    Ver todos los comentarios
    00:00 / 00:00
    OK