Cifra Club

Gracious Tempest

Hillsong Young & Free

Cifrado: Principal (guitarra y guitarra eléctrica)
tono: E
[Intro]

       C#m               A   E
E|-----------------------------------------------------------|
B|---------------------2-------------------------------------|
G|--4---4-----4----4---2---1---4---1---4---1---4-------------|
D|--6------6----6----------------------------------4---2-----|
A|--4------------------0---2---------------------------------|
E|-------------------------0---------------------------------|

       C#m             A   E
E|-----------------------------|
B|---------------------2-------|
G|--4---4-----4----4---2---1---|
D|--6------6----6--------------|
A|--4------------------0---2---|
E|-------------------------0---|

C#m                 A   E
   Your love towers over me
C#m               A      E
   Gracious tempest, endless sea

Your love is like a storm , oh oh

C#m                A    E
   Endless tide of mercy reign
C#m                   A      E
   Let it flood in my heart again
                   C#m  A   E   F#m  E  B
Surround me like an o - o - cean

      C#m                  A
Your love is crashing over me
     E
It's surging like a raging sea
   C#m                    A       E
Im-merse me in the wonder of Your love
  C#m                  A
A downpour of unending grace
    E
Con-suming all my reckless ways
   C#m
My sins submerged
              A        E
Your love has saved my soul
Your love is like a storm

C#m                     A
your love is crashing over me
     E
It's surging like a raging sea
       C#m                  A       E
Im-merse me in the wonder of Your love
C#m                     A
A downpour of unending grace
    E
Con-suming all my reckless ways
   C#m
My sins submerged
              A        E
Your love has saved my soul
                   C#m    A  E
Your love is like a storm , oh oh
                    C#m    A  E
Your love is like a storm , oh oh
                    C#m    A  E
Your love is like a storm , oh oh
                    C#m    A  E
Your love is like a storm , oh oh

[Final] C#m  A  E
        C#m  A  E
        C#m  A  E
        C#m  A  E
Composición de Ben Tan / Marty Sampson / Matt Crocker
670 vistas
    • ½ Tono
    • A
    • Bb
    • B
    • C
    • Db
    • D
    • Eb
    • E
    • F
    • F#
    • G
    • Ab
  • Agregar a la lista

    0 comentarios

    Ver todos los comentarios
    00:00 / 00:00
    Otros videos de esta canción
    Repetir Calidad Automático
    Otros videos de esta canción
    00:00 / 00:00
    Automático
    OK