Cifra Club

Bleed Well

Him

Cifrado: Principal (guitarra y guitarra eléctrica)
tono: G
intro:
e|---------------------------------------------------------------------------|
B|---------------------------------------------------------------------------|
G|---------------------------------------------------------------------------|
D|-------------5h7-------------5\4------------5h7--5--4--5--7--5--7----------|
A|--------5h7-------------5h7-------------5h7------3--2--3--5--3--5----------|
E|--0--0------------0--0------------0--0-------------------------------------|

Verso
e|---------------------------------------------------------------------------|
B|---------------------------------------------------------------------------|
G|---------------------------------------------------------------------------|
D|---------------------------------------------------------------------------|
A|--22222222--2222--4444--55555555--5555--4444-------------------------------|
E|--00000000--0000--2222--33333333--3333--2222-------------------------------|
pm............................................

Ponte
e|---------------------------------------------------------------------------|
B|---------------------------------------------------------------------------|
G|---------------------------------------------------------------------------|
D|--5--5555--7--7777--4--4444--5-xxxx----------------------------------------|
A|--3--3333--5--5555--2--2222--3-xxxx----------------------------------------|
E|---------------------------------------------------------------------------|

Refrão
e|---------------------------------------------------------------------------|
B|---------------------------------------------------------------------------|
G|---------------------------------------------------------------------------|
D|------------22222222------------------------------------55555555--77777777-|
A|--22222222--00000000--44444444--55--5--44--4--22222222--33333333--55555555-|
E|--00000000------------22222222--33--3--22--2--00000000---------------------|
                                  ..     ..
e|---------------------------------------------------------------------------|
B|---------------------------------------------------------------------------|
G|---------------------------------------------------------------------------|
D|---------------------------------------------------------------------------|
A|--0--2-----0---------------------------------------------------------------|
E|--------3------------------------------------------------------------------|

Pré Solo
e|---------------------------------------------------------------------------|
B|---------------------------------------------------------------------------|
G|---------------------------------------------------------------------------|
D|---------------------------------------------7--9--------------------------|
A|---------------------------------------------5--7--------------------------|
E|--0--7h8p7--0--5h7p5--0--3h5p3--0--2h3p2--0--------------------------------|
00:00 / 00:00
Otros videos de esta canción
Repetir
Otros videos de esta canción
Composición de Ville Valo
Colaboración y revisión:
  • InuYasha Iommi
94 vistas
    • ½ Tono
    • A
    • Bb
    • B
    • C
    • Db
    • D
    • Eb
    • E
    • F
    • F#
    • G
    • Ab
  • Agregar a la lista

    0 comentarios

    Ver todos los comentarios

    ¿Lograste tocar?

    1 Tocaron 0 Aún no

    ¡Graba un video tocando Bleed Well y envíanoslo!

    00:00 / 00:00
    OK