Cifra Club

Endless Dark

Him

Cifrado: Principal (guitarra y guitarra eléctrica)
Acompaña nuestras novedades de Cifra Club en español.
¡Sigue nuestro perfil en Instagram!
tono: C
Standerd tunning EADGBe

MAIN RIFF

e|----------------------------------|
B|----------------------------------|
G|------------------------777-------|  x2
D|--222-0--222-555--222-0-555--555--|
A|--222-0--222-333--222-0-555--333--|
E|--000-0--000-333--000-0------333--|

BRIDGE

e|----------------------------------------|
B|----------------------------------------|
G|-----------------77---------------------|
D|--22---22---55---55-55--222-0-222-555---|
A|--22---22---33---55-33--222-0-222-333---|
E|--00---00---33------33--000-0-000-333---|

e|----------------------------------------|
B|----------------------------------------|
G|-----------------77---------------------|
D|--22---22---55---55-55--222-0-222-------|
A|--22---22---55---55-33--222-0-222-------|
E|--00---00---33------33--000-0-000-1/12~-|

PRe|-CHORUS

e|---------------------------------------------------------------------------|
B|---------------------------------------------------------------------------|
G|---------77777----------------77777-------------------77777777777777-------|
D|--55555--55555--2222--555555--55555--2222--555555555--55555555555555-------|
A|--33333--55555--2222--555555--55555--2222--555555555--55555555555555-------|
E|--33333---------0000--333333---------0000--333333333-----------------------|

   ========================PALM MUTE=========================


CHORUS

e|----------------------------------------------------|
B|----------3333333------------------------3333333----|
G|----------2222222---77777----------5555--2222222----|
D|---22222--0000000---77777---7777---5555--0000000----|
A|---22222--0000000---55555---7777---3333--0000000----|
E|---00000--0000000-----------5555---------0000000----|

AFTER SOLO

e|-------------------------------------|
B|-------------------------------------|
G|-------------------------------------|
D|--5-----5------5----5----5-5-5-5-----|
A|--5-----5------5----5----5-5-5-5-----|
E|--3-----3------3----3----3-3-3-3-----|

MAIN RIFF

e|----------------------------------|
B|----------------------------------|
G|------------------------777-------|  x4
D|--222-0--222-555--222-0-555--555--|
A--222-0--222-333--222-0-555--333--|
E|--000-0--000-333--000-0------333--|

OUTRO

e|---------------------------------------|
B|---------------------------------------|
G|---------------------------------------|
D|--22----------22---------22--22--2~~~~-|
Composición de Ville Valo
Colaboración y revisión:
  • Hellektra
79 vistas
    • ½ Tono
    • A
    • Bb
    • B
    • C
    • Db
    • D
    • Eb
    • E
    • F
    • F#
    • G
    • Ab
  • Agregar a la lista

    0 comentarios

    Ver todos los comentarios

    ¿Lograste tocar?

    0 Tocaron 0 Aún no

    ¡Graba un video tocando Endless Dark y envíanoslo!

    00:00 / 00:00
    Outros vídeos desta música
    Repetir Calidad Automático
    Outros vídeos desta música
    00:00 / 00:00
    Automático
    OK