Cifra Club

Gone With The Sin Solo Solo

Him

Tab de bajo: Principal

One of the most beautiful ballads in rock music. The Solo originally is played by
keyboard-bass/synthesizer or something like this, but you can also play it with a bass.

It´s not perfect. I had many problems with the octaves, because there´re some really deep
tones, you would also have problems to play with a 5-string! So that´s the best/most
practical version I can offer.

G|-2--/9-----------------4-5---7-5---4--------------|
D|----------12-10-9--/5----------------7---5h7------|
A|----------------------------------------------7---|
E|--------------------------------------------------|

G|------9--------------------------9--------------------|
D|-----------12-10-12--/9--10-12-------12-10---9--------|
A|-/12-------------------------------------------12-10--|
E|------------------------------------------------------|

G|---------------------------------------------9----------|
D|------------------7---7---9-10-9---9---10-12----12--10--|
A|-8-7----------------------------------------------------|
E|-----10---8-7-5-----------------------------------------|

G|----------------------------------------------------------|
D|-9-7---------------------7---7---9-10-9--/5--/9--10~------|
A|-----10---8-7---------------------------------------------|
E|--------------10---8-5-------------------------------(8~-)|


During the last chorus.(3x)
    Gone  with  the sin ...      how beautiful  you  are ...
    Oh...            ho...        completely  torn apart
G|-------------------------------------14---12-11-9---------|
D|-9-----------11-----------12------------------------12-11-|
A|----------------------------------------------------------|
E|----------------------------------------------------------|

Play this at the end.

G|----------------------------------|
D|-9---------11---------12~~~~~~~~~-|
A|----------------------------------|
E|----------------------10~~~~~~~~~-|

Questions? Mail me: *
00:00 / 00:00
Otros videos de esta canción
Repetir
Otros videos de esta canción
Compositor no encontrado.
40 vistas

0 comentarios

Ver todos los comentarios

¿Lograste tocar?

0 Tocaron 0 Aún no

¡Graba un video tocando Gone With The Sin Solo Solo y envíanoslo!

00:00 / 00:00
OK