Cifra Club

Gone With The Sin

Him

Cifrado: Principal (guitarra y guitarra eléctrica)
tono: C
Acordes

[Versos 1 e 2]
Am  G  F

[Coro]
Am  G  F  C  G

[Verso 1]
I love your skin oh so white
I love your touch cold as ice
And I love every single tear you cry
I just love the way you're losing your life

[Coro]
Wowoooo my Baby, how beautiful you are
Wowoooo my Darling, completely torn apart
You're gone with the sin my Baby and beautiful you are
You're gone with the sin my Darling

[Verso 2]
I adore the dispair in your eyes
I worship your lips once red as wine
I crave for your scent sending shivers down my spine
I just love the way you're running out of life

[Coro]
Wowoooo my Baby, how beautiful you are
Wowoooo my Darling, completely torn apart
You're gone with the sin my Baby and beautiful you are
You're gone with the sin my Darling

[Solo]
(Necessário um Tremolo)

s = Slide
h = hammering
td = Tremolo down
e|-------------------------------------------------|
b|-------------------------------------------------|
g|--2-s8--6--5-----------5--6--5-------------------|
d|--------------8--5--8-----------9--8--6--5--6--2-|
a|-------------------------------------------------|
e|-------------------------------------------------|

e|-------------------------------------------------|
b|-------------------------------------------------|
g|--2-s8--6--5-h6-----5--6--8--6--5--4--2--0-------|
d|-----------------8--------------------------3--2-|
a|-------------------------------------------------|
e|-------------------------------------------------|

e|---------------------------------------------------------------------------------|
b|---------------------------------------------------------------------------------|
g|---------------------------------------------------------------------------------|
d|0----------------------0--2--0---------------------------------------------------|
a|--3--2--0--2--3--2--3-----------3--2--0-----------------0--2--3--2-----2--3--2h3-|
e|-----------------------------------------2--1--0--td-2--------------3------------|

Bm  A  G  D  A

Wowoooo my Baby, how beautiful you are
Wowoooo my Darling, completely torn apart
You're gone with the sin my Baby and beautiful you are
You're gone with the sin my Darling

Acordes:

    Am   G   F   C    Bm  A   D
e|--0----3---1---0----2---0---2---|
B|--1----0---1---1----3---2---3---|
G|--2----0---2---0----4---2---2---|
D|--2----0---3---2----4---2---0---|
A|--0----2---3---3----2---0---x---|
E|-------3------------2---0---x---|
Composición de Ville Valo
Colaboración y revisión:
  • Gabriel pereira
  • Hellektra
806 vistas
    • ½ Tono
    • A
    • Bb
    • B
    • C
    • Db
    • D
    • Eb
    • E
    • F
    • F#
    • G
    • Ab
  • Agregar a la lista

    0 comentarios

    Ver todos los comentarios

    ¿Lograste tocar?

    1 Tocaron 0 Aún no

    ¡Graba un video tocando Gone With The Sin y envíanoslo!

    00:00 / 00:00
    Outros vídeos desta música
    Repetir Calidad Automático
    Outros vídeos desta música
    00:00 / 00:00
    Automático
    OK