Cifra Club

In Joy And Sorrow

Him

Tab de bajo: Versão 2
(Nothing to play on the G-String in this Song) 

Beginning: 
D|----------------|----------------|
A|----------------|----------------|
E|0-0-0-0-0-0-0-0-|0-0-0-0-0-0-0-0-| 

Chorus: 

D|----------------|----------------|----------------|----------------|
A|----------------|----------------|3-3-3-3-3-3-3-3-|----------------|
E|5-5-5-5-5-5-5-5-|5-5-5-5-5-5-5-5-|----------------|3-3-3-3-3-3-3-3-|

D|----------------|----------------|----------------|----------------|
A|----------------|----------------|3-3-3-3-3-3-3-3-|----------------|
E|1-1-1-1-1-1-1-1-|1-1-1-1-1-1-1-1-|----------------|3-3-3-3-4-4-4-4-|

D|----------------|----------------|----------------|----------------|
A|----------------|----------------|3-3-3-3-3-3-3-3-|----------------|
E|5-5-5-5-5-5-5-5-|5-5-5-5-5-5-5-5-|----------------|3-3-3-3-3-3-3-3-|

D|----------------|----------------|----------------|----------------|
A|----------------|----------------|3-3-3-3-3-3-3-3-|----------------|
E|1-1-1-1-1-1-1-1-|1-1-1-1-1-1-1-1-|----------------|3-3-3-3-3-3-3-3-|

Then the Verse: 

D|----------------|----------------|----------------|----------------|
A|3-3-3-3-3-3-3-3-|----------------|----------------|----------------|
E|----------------|3-3-3-3-3-3-3-3-|5-5-5-5-5-5-5-5-|5-5-5-5-5-5-5-5-|

D|----------------|----------------|----------------|----------------|
A|3-3-3-3-3-3-3-3-|----------------|----------------|----------------|
E|----------------|3-3-3-3-3-3-3-3-|5-5-5-5-5-5-5-5-|5-5-5-5-5-5-5-5-|

D|----------------|----------------|----------------|----------------|
A|3-3-3-3-3-3-3-3-|----------------|5-5-5-5-5-5-5-5-|----------------|
E|----------------|3-3-3-3-3-3-3-3-|----------------|5-5-5-5-5-5-5-5-|

D|----------------|----------------|----------------|----------------|
A|3-3-3-3-3-3-3-3-|----------------|----------------|----------------|
E|----------------|3-3-3-3-3-3-3-3-|0-0-0-0-0-0-0-0-|0-0-0-0-0-0-0-0-|

Here comes the Chorus again 

Part with “Ahh, ahh, ahh, ahh, ahh”:

D|----------------|----------------|----------------|---------------/|
A|0-(let Ring till the Slide)------|----------------|--------------/-|
E|----------------|----------------|----------------|----------------|  

(Slide to the higher A, at least you can also take A|12 instead D|7)

D|7 (let Ring till the End)--------|----------------|----------------|
A|----------------|----------------|----------------|----------------| 
E|----------------|----------------|----------------|----------------|  

Shifted Chorus now:

D|----------------|----------------|----------------|----------------|
A|----------------|----------------|5-5-5-5-5-5-5-5-|----------------|
E|7-7-7-7-7-7-7-7-|7-7-7-7-7-7-7-7-|----------------|5-5-5-5-5-5-5-5-|

D|----------------|----------------|----------------|----------------|
A|----------------|----------------|5-5-5-5-5-5-5-5-|----------------|
E|3-3-3-3-3-3-3-3-|3-3-3-3-3-3-3-3-|----------------|5-5-5-5-6-6-6-6-| (fade out)
00:00 / 00:00
Otros videos de esta canción
Repetir
Otros videos de esta canción
Composición de Ville Valo
00:00 / 00:00
OK