Cifra Club

It's All Tears

Him

Tab de bajo: Principal
Note *Just play along with the vocals* 

Chorus: 
		   4& 1&2
G|---------------|---------------|---------------|---------------|
D|---------------|----4-6-7-6-4-6|--6-4---4------|---------------|
A|--------------4|--4------------|------7---7-6-7|--7-7-7-7-7-7-7|
E|---------------|---------------|---------------|---------------| 

G|6-5-6-5-6-5-6--|
D|---------------|
A|---------------|
E|---------------| repeat this 4 times (without the rest at the beginning) 

Then the Verse: 

G|---------------|---------------|---------------|---------------|
D|---------------|---------------|---------------|---------------|
A|4-4-4-4-4-4-4-4|4-4-4-4-4-4-4-4|7-7-7-7-7-7-7-7|---------------| 
E|---------------|---------------|---------------|7-7-7-7-7-7-7-7| 3x  

G|---------------|---------------|---------------|---------------|
D|---------------|---------------|---------------|---------------|
A|4-4-4-4-4-4-4-4|4-4-4-4-4-4-4-4|7---7-7-7-7-7-7|6---6-6-6-6-6-6| 
E|---------------|---------------|---------------|---------------| 1x  

Then the chorus again and so on. Just listen.
00:00 / 00:00
Otros videos de esta canción
Repetir
Otros videos de esta canción
Composición de Ville Valo
Colaboración y revisión:
  • Hellektra
21 vistas

0 comentarios

Ver todos los comentarios

¿Lograste tocar?

0 Tocaron 0 Aún no

¡Graba un video tocando It's All Tears y envíanoslo!

00:00 / 00:00
OK